Oops, an error
Loading. Please wait.

Noir Tab

10 views 1 this week
no commentswrite comment
1 2 3 4 5
3 more votes to show rating
add to favorites
launch autoscroll
font size
0
reset
how to read this tab
guitar tuner
Autoscroll
slow
fast
+/-
esc
set tempo
stop
Help us to improve Ultimate-Guitar.com Take our survey!
×
Author
Difficulty
Tuning
novice
D A D G B E
shandon - noir
tuning  : drop D

[intro]

guit1:
E|--------------------------|-----------------------------|
B|--------------------------|-----------------------------| x2
G|--------------------------|-----------------------------|
D|--------8-----------8-----|--------5-----------5--------|
A|-----6-----6-----6-----6--|-----3-----3-----3-----3-----|
D|--6-----------6-----------|--3-----------3-----------3--|


[verse]

guit1:
E|--------------------------|-----------------------------|
B|--------------------------|-----------------------------| x4
G|--------------------------|-----------------------------|
D|--------8-----------8-----|--------5-----------5--------|
A|-----6-----6-----6-----6--|-----3-----3-----3-----3-----|
D|--6-----------6-----------|--3-----------3-----------3--|

guit2:
E|--4--4-----4--4-----|--1--1-----1--1-----|
B|--4--4-----4--4-----|--1--1-----1--1-----| x4
G|--3--3-----3--3-----|--0--0-----0--0-----|
D|--------------------|--------------------|
A|--------------------|--------------------|
D|--------------------|--------------------|

guit1&guit2:
E|-----------------------------|
B|-----------------------------|
G|--7--7--7--7-----7--7--7--7--|
D|--7--7--7--7-----7--7--7--7--|
A|--5--5--5--5-----5--5--5--5--|
D|-----------------------------|

guit1:
E|--------------------------|-----------------------------|
B|--------------------------|-----------------------------| x6
G|--------------------------|-----------------------------|
D|--------8-----------8-----|--------5-----------5--------|
A|-----6-----6-----6-----6--|-----3-----3-----3-----3-----|
D|--6-----------6-----------|--3-----------3-----------3--|

guit2:
E|--4--4-----4--4-----|--1--1-----1--1-----|
B|--4--4-----4--4-----|--1--1-----1--1-----| x6
G|--3--3-----3--3-----|--0--0-----0--0-----|
D|--------------------|--------------------|
A|--------------------|--------------------|
D|--------------------|--------------------|

guit1 and guit2:
E|-----------------------------|
B|-----------------------------|
G|--7--7--7--7-----7--7--7--7--|
D|--7--7--7--7-----7--7--7--7--|
A|--5--5--5--5-----5--5--5--5--|
D|-----------------------------|




E|--------------------------------------------------------------------|
B|--------------------------------------------------------------------|
G|--5--5--5--5--5-----6--6--6--6--6-----8--8--8--8--8--8--8--8--8--8--| x2
D|--3--3--3--3--3-----6--6--6--6--6-----6--6--6--6--6--6--6--6--6--6--|
A|--3--3--3--3--3-----4--4--4--4--4-----6--6--6--6--6--6--6--6--6--6--|
D|--3--3--3--3--3-----------------------6--6--6--6--6--6--6--6--6--6--|

E|-------------------------------------------------------------------------------------------------|
B|-------------------------------------------------------------------------------------------------|
G|--5--5--5--5--5-----6--6--6--6--6-----8--8--8--8--8--10--10--10--10--10--13--13--13--13--13--13--|
D|--3--3--3--3--3-----6--6--6--6--6-----6--6--6--6--6--8---8---8---8---8---11--11--11--11--11--11--|
A|--3--3--3--3--3-----4--4--4--4--4-----6--6--6--6--6--8---8---8---8---8---11--11--11--11--11--11--|
D|--3--3--3--3--3-----------------------6--6--6--6--6--8---8---8---8---8---11--11--11--11--11--11--|


[intro]

guit1:
E|--------------------------|-----------------------------|
B|--------------------------|-----------------------------| x2
G|--------------------------|-----------------------------|
D|--------8-----------8-----|--------5-----------5--------|
A|-----6-----6-----6-----6--|-----3-----3-----3-----3-----|
D|--6-----------6-----------|--3-----------3-----------3--|


[verse]

guit1:
E|--------------------------|-----------------------------|
B|--------------------------|-----------------------------| x8
G|--------------------------|-----------------------------|
D|--------8-----------8-----|--------5-----------5--------|
A|-----6-----6-----6-----6--|-----3-----3-----3-----3-----|
D|--6-----------6-----------|--3-----------3-----------3--|


guit2:
E|--4--4-----4--4-----|--1--1-----1--1-----|
B|--4--4-----4--4-----|--1--1-----1--1-----| x8
G|--3--3-----3--3-----|--0--0-----0--0-----|
D|--------------------|--------------------|
A|--------------------|--------------------|
D|--------------------|--------------------|

guit1 and guit2:
E|-----------------------------|
B|-----------------------------|
G|--7--7--7--7-----7--7--7--7--|
D|--7--7--7--7-----7--7--7--7--|
A|--5--5--5--5-----5--5--5--5--|
D|-----------------------------|




E|--------------------------------------------------------------------|
B|--------------------------------------------------------------------|
G|--5--5--5--5--5-----6--6--6--6--6-----8--8--8--8--8--8--8--8--8--8--| x3
D|--3--3--3--3--3-----6--6--6--6--6-----6--6--6--6--6--6--6--6--6--6--|
A|--3--3--3--3--3-----4--4--4--4--4-----6--6--6--6--6--6--6--6--6--6--|
D|--3--3--3--3--3-----------------------6--6--6--6--6--6--6--6--6--6--|


[bridge]

E|---------------------------------------------------|
B|---------------------------------------------------|
G|--10-----13--------9-----9--------10-----13--------| ogni accordo x6
D|--8------11--------7-----7--------8------11--------|
A|--8------11--------7-----7--------8------11--------|
D|--8------11--------7-----7--------8------11--------|

riff:
E|--------------------------|
B|--------------------------|
G|--------------------------| x2
D|--6--6--8--6--6--8--6-----|
A|--6--6--8--6--6--8--6-----|
D|--6--6--8--6--6--8--6-----|

E|------------------------------------------|
B|------------------------------------------|
G|--10--------12--------13--------13--------| ogni accordo x6
D|--8---------10--------11--------11--------|
A|--8---------10--------11--------11--------|
D|--8---------10--------11--------11--------|




E|--------------------------------------------------------------------|
B|--------------------------------------------------------------------|
G|--5--5--5--5--5-----6--6--6--6--6-----8--8--8--8--8--8--8--8--8--8--| x2
D|--3--3--3--3--3-----6--6--6--6--6-----6--6--6--6--6--6--6--6--6--6--|
A|--3--3--3--3--3-----4--4--4--4--4-----6--6--6--6--6--6--6--6--6--6--|
D|--3--3--3--3--3-----------------------6--6--6--6--6--6--6--6--6--6--|

E|-------------------------------------------------------------------------------------------------|
B|-------------------------------------------------------------------------------------------------|
G|--5--5--5--5--5-----6--6--6--6--6-----8--8--8--8--8--10--10--10--10--10--13--13--13--13--13--13--|
D|--3--3--3--3--3-----6--6--6--6--6-----6--6--6--6--6--8---8---8---8---8---11--11--11--11--11--11--|
A|--3--3--3--3--3-----4--4--4--4--4-----6--6--6--6--6--8---8---8---8---8---11--11--11--11--11--11--|
D|--3--3--3--3--3-----------------------6--6--6--6--6--8---8---8---8---8---11--11--11--11--11--11--|


[outro]

riff:
E|--------------------------|
B|--------------------------|
G|--------------------------| x2
D|--6--6--8--6--6--8--6-----|
A|--6--6--8--6--6--8--6-----|
D|--6--6--8--6--6--8--6-----|
Suggest correction
Give kudos to tab author, rate the tab!
1 2 3 4 5
comments
print report bad tab
guest
You may want to rate the tab now too:
select rating
Wanna post a correction for this tab? Suggest correction