Oops, an error
Loading. Please wait.

Viola Tab

19 views 1 this week
no commentswrite comment
1 2 3 4 5
3 more votes to show rating
add to favorites
launch autoscroll
font size
0
reset
how to read this tab
guitar tuner
Autoscroll
slow
fast
+/-
esc
set tempo
stop
Help us to improve Ultimate-Guitar.com Take our survey!
×
Author
Difficulty
intermediate
shandon 
viola

[Intro]

guit1:
E|-----------------------------------|--------------------------------------------|--
B|-----------------------------------|--------------------------------------------|--
G|--------4--3-----------3--------3--|-----------3--4--3--------------3--4--3-----|-- x8 più o meno 
D|-----4-----------4-----------4-----|--------4-----------4--------4-----------4--|--
A|--2-----------------2-----2--------|-----2--------------------------------------|--
E|-----------------------------------|--0--------------------0--0-----------------|--

guit2:
E|-----------------------------------|-----------------------------------|--
B|-----------------------------------|-----------------------------------|-- entra al 3° giro della guit1
G|-----------------------------8--9--|-----------------------------------|--
D|-----------------------------9--9--|-----------------------------------|--
A|-----------------------------7--7--|-----------------------------------|--
E|-----------------------------------|-----------------------------------|--

E|-----------------|-----------------|-----------------|--
B|-----------------|-----------------|-----------------|--
G|--6--------------|--9--------------|--6--------------|--
D|--6--x9----------|--9--x9----------|--6--x9----------|--
A|--4--------------|--7--------------|--4--------------|--
E|-----------------|-----------------|-----------------|--

E|-----------------------------|-----------------------------|--
B|-----------------------------|-----------------------------|--
G|--9--9--9--9--8--8--8--9--8--|-----------------------------|--
D|--9--9--9--9--9--9--9--9--9--|-----9-----------------------|--
A|--7--7--7--7--7--7--7--7--7--|-----9-----------------------|--
E|-----------------------------|-----7-----------------------|--


[Verse 1]

guit&guit2:
E|--------------------------------------------|--
B|--------------------------------------------|--
G|--6--6--6-----6--9-----9--9-----9--9--9--9--|-- x4
D|--6--6--6-----6--9-----9--9-----9--9--9--9--|--
A|--4--4--4-----4--7-----7--7-----7--7--7--7--|--
E|--------------------------------------------|--

E|----------------------------------|--
B|----------------------------------|--
G|--11--11--11--11--13--13--13--13--|-- x2
D|--11--11--11--11--13--13--13--13--|--
A|--9---9---9---9---11--11--11--11--|--
E|----------------------------------|--

E|--------------------------|--
B|--------------------------|--
G|--9--9--9--9--8--8--8--8--|-- x2 
D|--9--9--9--9--9--9--9--9--|--
A|--7--7--7--7--7--7--7--7--|--
E|--------------------------|--


[Chorus]

guit1&guit2:
E|-----------------|-----------------|-----------------|-----------------|--
B|-----------------|-----------------|-----------------|-----------------|--
G|-----------------|--9--------------|--6--------------|--9--------------|-- x2
D|--9--------------|--9------x9------|--6-------x9-----|--9-------x9-----|--
A|--9-----x9-------|--7--------------|--4--------------|--7--------------|--
E|--7--------------|-----------------|-----------------|-----------------|--

ends in 
E|-----|--
B|-----|--
G|-----|--
D|--9--|--
A|--9--|--
E|--7--|--


[Verse 2]

guit1:
E|-----------------------------------|--------------------------------------------|--
B|-----------------------------------|--------------------------------------------|--
G|--------4--3-----------3--------3--|-----------3--4--3--------------3--4--3-----|-- x5
D|-----4-----------4-----------4-----|--------4-----------4--------4-----------4--|--
A|--2-----------------2-----2--------|-----2--------------------------------------|--
E|-----------------------------------|--0--------------------0--0-----------------|--

guit1&guit2:
E|------------|------------|------------------------------|------------------------------|--
B|------------|------------|------------------------------|--9--9--9--9--12--12--12--12--|--
G|--11--------|--11--------|--9--9--9--9--11--11--11--11--|--x--x--x--x--x---x---x---x---|--
D|--x---------|--x---------|--x--x--x--x--x---x---x---x---|--6--6--6--6--9---9---9---9---|--
A|--9---------|--9---------|--7--7--7--7--9---9---9---9---|------------------------------|--
E|------------|------------|------------------------------|------------------------------|--


[Chorus]

guit&guit2:
E|-----------------|-----------------|-----------------|-----------------|--
B|-----------------|-----------------|-----------------|-----------------|--
G|-----------------|--9--------------|--6--------------|--9--------------|-- x2
D|--9--------------|--9------x9------|--6-------x9-----|--9-------x9-----|--
A|--9-----x9-------|--7--------------|--4--------------|--7--------------|--
E|--7--------------|-----------------|-----------------|-----------------|--


[Bridge]

guit&guit2:
E|--------------------|--------------------|--
B|--------------------|--------------------|--
G|--------------------|--9-----------------|-- x3
D|--6-----------------|--9---x9------------|--
A|--6---x9------------|--7-----------------|--
E|--4-----------------|--------------------|--

E|--------------------|--
B|--------------------|--
G|--------------------|--
D|--6-----------------|--
A|--6------x9---------|--
E|--4-----------------|--

E|------------------------------|------------------------------|--
B|------------------------------|--9--9--9--9--12--12--12--12--|--
G|--9--9--9--9--11--11--11--11--|--x--x--x--x--x---x---x---x---|--
D|--x--x--x--x--x---x---x---x---|--6--6--6--6--9---9---9---9---|--
A|--7--7--7--7--9---9---9---9---|------------------------------|--
E|------------------------------|------------------------------|--


[Chorus]

guit&guit2
E|-----------------|-----------------|-----------------|-----------------|--
B|-----------------|-----------------|-----------------|-----------------|--
G|-----------------|--9--------------|--6--------------|--9--------------|-- x2
D|--9--------------|--9------x9------|--6-------x9-----|--9-------x9-----|--
A|--9-----x9-------|--7--------------|--4--------------|--7--------------|--
E|--7--------------|-----------------|-----------------|-----------------|--


[Outro]

guit1:
E|-----------------------------------|--------------------------------------------|--
B|-----------------------------------|--------------------------------------------|--
G|--------4--3-----------3--------3--|-----------3--4--3--------------3--4--3-----|-- x2
D|-----4-----------4-----------4-----|--------4-----------4--------4-----------4--|--
A|--2-----------------2-----2--------|-----2--------------------------------------|--
E|-----------------------------------|--0--------------------0--0-----------------|--



x = dead note
Suggest correction
Give kudos to tab author, rate the tab!
1 2 3 4 5
comments
print report bad tab
guest
You may want to rate the tab now too:
select rating
Wanna post a correction for this tab? Suggest correction