Oops, an error
Loading. Please wait.

Shipwrecked Tab

1,867 views 1 this week
no commentswrite comment
1 2 3 4 5
1 last vote to show rating
add to favorites
launch autoscroll
font size
0
reset
how to read this tab
guitar tuner
Autoscroll
slow
fast
+/-
esc
set tempo
stop
Help us to improve Ultimate-Guitar.com Take our survey!
×
Author
Difficulty
intermediate
intro: (p = pull off)
E|---1p0---1p0---1p0-----------1p0----1p0---1p0---1p0-|
B|----------------------------------------------------|
G|--2-----2-----2-----2-------2------2-----2-----2----|
D|-0-----0-----0-----0-------0-----0------0-----0-----|
A|---------------------3p0-3--------------------------|
E|----------------------------------------------------|

verse 1: (play 4x)
E|---1---1---1---1---1---1---1---1-|
B|---------------------------------|
G|--2---2---2---2---2---2---2---2--|
D|-----------------0---0---0---0---|
A|-3---3---3---3-------------------|
E|---------------------------------|

intro to chorus:
E|---------1---1---1---1-|
B|-----------------------|
G|--------2---2---2---2--|
D|-------0---0---0---0---|
A|-3p0-3-----------------|
E|-----------------------|

chorus: (play 2x)
E|---1---1---1---1---1---1---1---1---1---1---1---1---1---1---1---1-|
B|-----------------------------------------------------------------|
G|--2---2---2---2---2---2---2---2---2---2---2---2---2---2---2---2--|
D|-0---0---0---0---------------------------------------------------|
A|----------------3---3---3---3---2---2---2---2----1---1---3---3---|
E|-----------------------------------------------------------------|

chorus outro:
E|---1---1---1---1---1---1---1---1---1---1---0---0-|
B|--2---2---2---2---3---3---3---3---3---3---1---1--|
G|-------------------------------------------------|
D|-0---0---0---0---0---0---0---0-------------------|
A|---------------------------------1---1---0---0---|
E|-------------------------------------------------|

verse 2: (play 4x)
E|---1---1---1---1---1---1---1---1-|
B|---------------------------------|
G|--2---2---2---2---2---2---2---2--|
D|-----------------0---0---0---0---|
A|-3---3---3---3-------------------|
E|---------------------------------|

intro to chorus:
E|---------1---1---1---1-|
B|-----------------------|
G|--------2---2---2---2--|
D|-------0---0---0---0---|
A|-3p0-3-----------------|
E|-----------------------|

chorus: (play 3x)
E|---1---1---1---1---1---1---1---1---1---1---1---1---1---1---1---1-|
B|-----------------------------------------------------------------|
G|--2---2---2---2---2---2---2---2---2---2---2---2---2---2---2---2--|
D|-0---0---0---0---------------------------------------------------|
A|----------------3---3---3---3---2---2---2---2----1---1---3---3---|
E|-----------------------------------------------------------------|

outro:
E|---10---10---10---10---10---10---10---10---7---7---7---7---5---5---5---5-|
B|------------------------------------------------------------------3---3--|
G|--10---10---10---10---10---10---10---10---7---7---7---7---7---7----------|
D|-------------------------------------------------------------------------|
A|-----------------------------------------------------------------3---3---|
E|-10---10---10---10---8----8----8----8----7---7---7---7---6---6-----------|

continued:
E|---1---1---1---1---1---1---1---1-------5-0--------5-0------|
B|--2---2---2---2---3---3---3---3----6------6--5---5---------|
G|-----------------------------------------------------5---7-|
D|-0---0---0---0---0---0---0---0----8---8-----7---7-----7----| END
A|---------------------------------------------------------5-|
E|---------------------------------5---5-----5---5-----------|


http://www.shanealexandermusic.com/
Suggest correction
Give kudos to tab author, rate the tab!
1 2 3 4 5
comments
print report bad tab
guest
You may want to rate the tab now too:
select rating
Wanna post a correction for this tab? Suggest correction