Oops, an error
Loading. Please wait.

Answer tab

version 2
version 2

Whole song

4,327 views 3 this week
no commentswrite comment
1 2 3 4 5
x 3
add to favorites
×
Save as Personal and add changes to this tab that will be seen only by you. Learn more ›
×
You can save this tab as Personal to edit and correct it or add notes. All changes will be seen only by you. Learn more »
launch autoscroll
font size
0
reset
how to read this tab
guitar tuner
edit
Autoscroll
slow
fast
+/-
esc
set tempo
stop
Author
The Answer
By Shane & Shane
As heard on AN EVENING WITH SHANE AND SHANE
2nd Guitar Part as played by Taylor

AIM sn-xmrmandux
Email-the_mandu_man@yahoo.com
Contact me for corrections or help

Standard Tuning: EADGBE
Capo:4

VERSE
I've tried more of me...

e|-----------------|
B|---------------1-|
G|-2-2-------0h2---|
D|-2-2---0h2-------|
A|-0-0-0-----------|
E|-----------------|

e|---------0-------|
B|-0-0-1-3-3-------|
G|-0-0-0-0---------|
D|-----------------|
A|-----------------|
E|-3-3-3-3---------|

e|-----------------|
B|-3-3-----------3-|
G|-2-2-------0h2---|
D|---------0-------|
A|-----------------|
E|-2-2-0h2---------|

e|-----------------|
B|-1-1-1-0-1-------|
G|-0-0-0-0-0-------|
D|-----------------|
A|-----------------|
E|-1-1-1-1-1-------|

PRE-CHORUS
My happiness is found in less...

A2
e|-0-|
B|-0-|
G|-2-|
D|-2-|
A|-0-|
E|-0-|

G Variation
e|-0-|
B|-0-|
G|-0-|
D|-0-|
A|-x-|
E|-3-|

D Variation
e|-0-|
B|-3-|
G|-2-|
D|-0-|
A|-0-|
E|-2-|

F Variation
e|-3-|
B|-1-|
G|-2-|
D|-3-|
A|-0-|
E|-x-|

At the end of the pre-chorus during the second time, play the F Variation except with
G string played open so it's like

e|-3-|
B|-1-|
G|-0-|
D|-3-|
A|-0-|
E|-0-|

CHORUS
I have found the answer is to love you...

e|-------------------------|
B|-------1---------1-------|
G|-----0---0-----0---0-----|
D|-2h3-------2h3-------2h3-|
A|-------------------------|
E|-------------------------|

e|-----------3-1-0-|
B|-------3---------|
G|-----0---0-------|
D|-----------------|
A|-0h2-------------|
E|-----------------|

e|-----0-----------|
B|-0h1---1-1h3-3-1-|
G|-----------------|
D|-----------------|
A|-----------------|
E|-----------------|

e|---3---3-3-3---3-3-|
B|---0h1-0-0-0h1-0-0-|
G|---0---0-0-0---0-0-|
D|---0---0-0-0---0-0-|
A|---2---2-2-2---2-2-|
E|-3-3---3-3-3---3-3-|

e|-------------------------|
B|-----------0-1-3-1-0-----|
G|-------0-2-----------2-0-|
D|-0-2-3-------------------|
A|-------------------------|
E|-------------------------|

e|-------0---------0---------|
B|---------1---------1---1---|
G|-----0---------0-----0-----|
D|-0h2-------0h2-----------3-|
A|---------------------------|
E|---------------------------|

e|-------0---------0---|
B|---------1---------1-|
G|-----0---------0-----|
D|-0h3-------0h3-------|
A|---------------------|
E|---------------------|

e|---3---3-3-3---3-3-|
B|---0h1-0-0-0h1-0-0-|
G|---0---0-0-0---0-0-|
D|---0---0-0-0---0-0-|
A|---2---2-2-2---2-2-|
E|-3-3---3-3-3---3-3-|

At the end of the chorus during the second time, end it by playing what's shown below, 
above

e|-3-3-3|
B|-0-0-1|
G|-0-0-0|
D|-0-0-0|
A|-2-2-2|
E|-3-3-3|

BRIDGE
You are, you are...

C
e|-0-|
B|-1-|
G|-0-|
D|-2-|
A|-3-|
E|-x-|

G Variation
e|-3-|
B|-1-|
G|-0-|
D|-0-|
A|-2-|
E|-3-|

Play the C chord once, followed by several down strums with the G Variation Chord. 
this several times.

G
e|-3-|
B|-0-|
G|-0-|
D|-0-|
A|-2-|
E|-3-|

Play the G chord followed by the G Variation Chord. Do this four times in total. After 
move on to...

e|-3----|
B|---3--|
G|----0-|
D|------|
A|------|
E|------|

Play this a total of four times, and move on to the chorus. From then on, it's all repetition

============================================================================

            
            
Suggest correction
Creating personal tab
Creating personal tab
You can edit any tab online and save it as your Personal.

You can edit, replace or remove any tab part or add personal notes – all changes will be seen only by you.

Personal tabs can be accessed anytime from any device, even offline.
Learn more »
Give kudos to tab author, rate the tab!
1 2 3 4 5
comments
print report bad tab
guest
You may want to rate the tab now too:
select rating
Wanna post a correction for this tab? Suggest correction