Oops, an error
Loading. Please wait.

Getcha Good intro tab

2,265 views 1 this week
2 commentsread comments
1 2 3 4 5
2 more votes to show rating
add to favorites
×
Save as Personal and add changes to this tab that will be seen only by you. Learn more ›
×
You can save this tab as Personal to edit and correct it or add notes. All changes will be seen only by you. Learn more »
launch autoscroll
font size
0
reset
how to read this tab
guitar tuner
edit
Autoscroll
slow
fast
+/-
esc
set tempo
stop
Getcha Good by Shania Twain
Tabbed by: Sexy Shawn

Sorry I messed up on the previous version! I missed out some chords.

Tuning:Standard (eBGDAE)
/=Slide

With Distortion
e--------------------------------------------------------
B--------------------------------------------------------
G--------------------------------------------------------
D-----8---8-8--6/8---------------------------------------
A-----8---8-8--6/8---------------------------------------
E-----6---4-4--4/4----(10)------------------------------- X2

"Lets go!"

e---------------------------------------------------------
B---------------------------------------------------------
G---------------------------------------------------------
D-----8---8-8--6/8--------11--11--9/10--------------------
A-----8---8-8--6/8--------11--11--9/10--------------------
E-----6---6-6--4/6--------9----9----7/8------------------- X2 

The next bit is the same but with bass notes only.
Thanks for lookin at my tab. This is my second tab now
(I messed up on my first version) so don't try to kill me just yet!

            
            
Suggest correction
Creating personal tab
Creating personal tab
You can edit any tab online and save it as your Personal.

You can edit, replace or remove any tab part or add personal notes – all changes will be seen only by you.

Personal tabs can be accessed anytime from any device, even offline.
Learn more »
Give kudos to tab author, rate the tab!
1 2 3 4 5
comments
print report bad tab
2 comments total.
0 reply
sexysean 0 Dec 15, 2002 07:00 PM

Sorry I'm such a bad tabber this is the third mistake I've made! The first section bass line shud look like--6-6-6-4/6. and the second bass line shud look like
--6-6-6-4/6-----9-9-7/9-8 Thanx

-1 reply
Ac_Dc_RoCkS 30 Oct 03, 2003 08:00 PM

Man! this thing sucks...learn how to tab right!

guest
Wanna post a correction for this tab? Suggest correction