Oops, an error
Loading. Please wait.

I Aint No Quitter Bass Tab

633 views 9 this week
no commentswrite comment
1 2 3 4 5
please rate
add to favorites
launch autoscroll
font size
0
reset
guitar tuner
Autoscroll
slow
fast
+/-
esc
set tempo
stop
Help us to improve Ultimate-Guitar.com Take our survey!
×
Contributor
-------------------------------------------------------------------------------
                             I Ain't No Quitter - Shania Twain
-------------------------------------------------------------------------------
Tabbed by: Mike Kunz
E-mail: rmjk21@embarqmail.com

Tuning: Standard


  Intro            he ropes, he rides
G|----------------|-------------------------------------------------|
D|----------------|-----------------------------------5-8-5---5-8-5-|
A|---66--66-------|---5-8-5---5-8-5---5-8-5---5-8-5-6-------6-------|
E|----------------|-6-------6-------6-------6-----------------------|

  calls me up when he's had too much
G|-----------------------------------------------------------------|
D|---5-8-5---5-8-5-------------------------------------------------|
A|-6-------6---------3-6-3---3-6-3---3-6-3---3-6-3---5-8-5---5-8-5-|
E|-----------------4-------4-------4-------4-------6-------6-------|

  I ain't no quitter
G|-----------------------------------------------------------------|
D|-------------------5-8-5---5-8-5---5-8-5---5-8-5-----------------|
A|---5-8-5---5-8-5-6-------6-------6-------6---------3-6-3---3-6-3-|
E|-6-------6---------------------------------------4-------4-------|

  just yet..
G|-------------------------------------------------|
D|---5-8-5---5-8-5-------------------5-8-5---5-8-5-|
A|-6-------6---------3-6-3---3-6-3-6-------6-------|
E|-----------------4-------4-----------------------|

  no he won't quit
G|--------------------------------|
D|--------------------------------|
A|----------3-6-3---5-8-5---5-8-5-|
E|111133334-------6-------6-------|


  I ain't no quitter                          he struts, he strolls
G|-------------------------|----------------|---------------------------------|
D|-----------5-8-5---5-8-5-|----------------|---------------------------------|
A|---5-8-5-6-------6-------|--66--66--------|---5-8-5---5-8-5---5-8-5---5-8-5-|
E|-6-----------------------|----------------|-6-------6-------6-------6-------|

  he's a beauter
G|-------------------------------------------------------------------------|
D|---5-8-5---5-8-5---5-8-5---5-8-5-----------------------------------------|
A|-6-------6-------6-------6---------3-6-3---3-6-3---3-6-3---3-6-3---5-8-5-|
E|---------------------------------4-------4-------4-------4-------6-------|

  to me and says
G|-------------------------------------------------------------------------|
D|---------------------------5-8-5---5-8-5---5-8-5---5-8-5-----------------|
A|---5-8-5---5-8-5---5-8-5-6-------6-------6-------6---------3-6-3---3-6-3-|
E|-6-------6-------6---------------------------------------4-------4-------|

  just yet...
G|-------------------------------------------------|
D|---5-8-5---5-8-5-------------------5-8-5---5-8-5-|
A|-6-------6---------3-6-3---3-6-3-6-------6-------|
E|-----------------4-------4-----------------------|

 no he won't quit 
G|--------------------------------|
D|--------------------------------|
A|----------3-6-3---5-8-5---5-8-5-|
E|111133334-------6-------6-------|

  ain't no quitter                           ( interlude )
G|-------------------------|----------------|---------------------------------|
D|-----------5-8-5---5-8-5-|----------------|---------------------------------|
A|---5-8-5-6-------6-------|--66--66--------|---5-8-5---5-8-5---5-8-5---5-8-5-|
E|-6-----------------------|----------------|-6-------6-------6-------6-------|

  ( interlude )
G|-------------------------------------------------------------------------|
D|---5-8-5---5-8-5---5-8-5---5-8-5-----------------------------------------|
A|-6-------6-------6-------6---------3-6-3---3-6-3---3-6-3---3-6-3---5-8-5-|
E|---------------------------------4-------4-------4-------4-------6-------|

   to me and says
G|-------------------------------------------------------------------------|
D|---------------------------5-8-5---5-8-5---5-8-5---5-8-5-----------------|
A|---5-8-5---5-8-5---5-8-5-6-------6-------6-------6---------3-6-3---3-6-3-|
E|-6-------6-------6---------------------------------------4-------4-------|

  just yet..       I'm as stuck 
G|----------------------------------------------------------------|
D|---5-8-5---5-8-5------------------5-8-5---5-8-5-----------------|
A|-6-------6--------3-6-3---3-6-3-6-------6---------3-6-3---3-6-3-|
E|----------------4-------4-----------------------4-------4-------|

  just yet
G|-------------------------------------------------|
D|---5-8-5---5-8-5-------------------5-8-5---5-8-5-|
A|-6-------6---------3-6-3---3-6-3-6-------6-------|
E|-----------------4-------4-----------------------|

 no he won't quit 
G|--------------------------------|
D|--------------------------------|
A|----------3-6-3---5-8-5---5-8-5-|
E|111133334-------6-------6-------|


  I ain't no quitter
G|----------------------------------------------------------------|
D|-----------5-8-5---5-8-5------------------5-8-5---5-8-5---------|
A|---5-8-5-6-------6--------5-8-5---5-8-5-6-------6---------5-8-5-|
E|-6----------------------6-------6-----------------------6-------|

  I ain't no quitter
G|-------------------------------|
D|-------------------5-8-5-------|
A|---5-8-5---5-8-5-6-------6---6-|
E|-6-------6-----------------6---|
Suggest correction new What's this?
You can suggest a correction to this tab. Community and Mods will review your correction and vote to approve or reject it.
comments
We did not receive enough feedback on this tab! Please rate:
print report bad tab
1 2 3 4 5
guest
You may want to rate the tab now too:
select rating
Please do not post tabs as comments. Select "correction" instead!