Oops, an error
Loading. Please wait.

Youre Still The One Tab

version 1
version 1

Whole song

Interactive

21,286 views 12 this week
1 commentread comment
1 2 3 4 5
please rate
add to favorites
launch autoscroll
font size
0
reset
how to read this tab
guitar tuner
Autoscroll
slow
fast
+/-
esc
set tempo
stop
Help us to improve Ultimate-Guitar.com Take our survey!
×
Flat out awesome song-Just copy/paste into blank document and resize text and
it should be completely legible

Shania Twain
YOU'RE STILL THE ONE


Intro

Spoken during intro:
When I First saw you I saw love.  And the first time you touched me I felt love.
And after all this time, you're still the one I love...

Looks like we made it. Look how far we've come, my baby We mighta took the long...
|---------------------------------------------------------------------------|e
|---------------------------------------------------------------------------|B
|--------------------------------0--(0)-------------------------------------|G
|-3--2---3-(3)--2-----2-2--(2)-3--------3-2--(2)-2-3-2----2-3--2---3-(3)--2-|D
|------2------------3-----------------------------------2--------2----------|A
|---------------------------------------------------------------------------|E

We knew we'd get there someday 
|----------------------------------|e
|----------------------------------|B
|------------0--(0)----------------|G
|---2--(2)-3--------3-2--(2)-2-3-2-|D
|-3--------------------------------|A
|----------------------------------|E

Chorus
They said "I bet they'll never make it" But just look at us holding on
|------------------------------------------------------------------|e
|-0-----0----------------------------------------------------------|B
|-----------------------0--(0)-------------------------------------|G
|----2----2-(2)-----2-3--------3---------2--(2)------3--(3)-0--(0)-|D
|----------------3----------------2-0------------------------------|A
|--------------------------------------3--------3--3---------------|E

We're still together Still going strong (You're Still the one)
|------------------------------------------------|e
|------------------------------------------------|B
|------------------------------------------0-0-0-|G
|---------------2-------3--(3)-0--(0)------------|D
|-2--2-0--------------0-----------------2--------|A
|--------3-(3)-----3-----------------------------|E

You're Still the one I run to, the one that I belong to. You're Still the one I...
|----------------------------------------------------------------------------|e
|----------------------------------------------------------------------------|B
|-(0)---0---------------0------2-0-------------0--------0--------------------|G
|-----2---3--2-0----------3--3------3-2-0-(0)----3-2--2---3--2-0--------3--0-|D
|----------------3-(3)-------------------------------------------3-(3)-------|A
|----------------------------------------------------------------------------|E

(You're Still the one) You're still the one I love, the only one I dream of
|----------------------------------------------------------------|e
|----------------------------------------------------------------|B
|----0-0-0--(0)-----0---------------0------2-0-------------0-----|G
|---------------2-2---3--2-0----------3--3------3-2-0-(0)----3-2-|D
|-2--------------------------3-(3)-------------------------------|A
|----------------------------------------------------------------|E

You're still the one I kiss good - night
|--------------------------|e
|--------------------------|B
|---0----------------------|G
|-2---3--2-0--------3-0--0-|D
|------------3-(3)---------|A
|--------------------------|E

Repeat to start for 2nd Verse  Repeat Chorus above and add next few lines

(night) You're still the one (You're Still the one) (Night)
|------------------------------------|e
|------------------------------------|B
|----------0--(0)----------0-0-0-----|G
|-0--(0)-3--------2-2--------------0-|D
|-----------------------2------------|A
|------------------------------------|E

I'm so glad we made it  Look how far we've come my baby
|------------------------------------------------|e
|------------------------------------------------|B
|-----------------------------------0------------|G
|-2-3--2---3-(3)--2---2-2-2--(2)-3----3-2-3--(3)-|D
|--------2---------------------------------------|A
|------------------------------------------------|E
Suggest correction new What's this?
You can suggest a correction to this tab. Community and Mods will review your correction and vote to approve or reject it.
comments
We did not receive enough feedback on this tab! Please rate:
print report bad tab
1 2 3 4 5
1 comment total.
0 reply
illumination 378 wrote on July 27 2010, 11:28 am

Hmm.. completely.. off. I tried to see if you happened to possibly maybe tab it on the wrong string or something but it still doesn't work

guest
You may want to rate the tab now too:
select rating
Please do not post tabs as comments. Select "correction" instead!