Oops, an error
Loading. Please wait.
We have Chord Pro version of Youre Still The One.
It's the closest thing you can get to the original song and it has interactive parts. Check out the tab »
×

Youre Still The One chords

3,301 views 198 this week
no commentswrite comment
1 2 3 4 5
3 more votes to show rating
add to favorites
×
Save as Personal and add changes to this tab that will be seen only by you. Learn more ›
×
You can save this tab as Personal to edit and correct it or add notes. All changes will be seen only by you. Learn more »
launch autoscroll
font size
0
reset
transpose
0
reset
simplify chords
display chords
guitar tuner
edit
Autoscroll
slow
fast
+/-
esc
set tempo
stop
About this tab version
Narration and Intro tab included in this version. Was this info helpful? Yes No
Strumming
There is no strumming pattern for this song yet. and get +5 IQ
CAPO 1

[Intro]

  "When I first saw you,              I saw love."
e|--------------------------------------------------------|
B|--------------------------------------------------------|
G|------------------------0--2--/4--2~--------------------|
D|----------------------0---------------------------------|
A|--------------------------------------------------------|
E|--------------------------------------------------------|
  "And the first time you touched me, I felt love."
e|--------------------------------------------------------|
B|--------------------------------------------------------|
G|--------------/4----2----4------2~----------------------|
D|--------0-----------------------------------------------|
A|--------------------------------------------------------|
E|--------------------------------------------------------|
  "And after all this time,  you're still the one I love."
e|------------------------------0----------------0--------|
B|-------3---2-----------------------3--------------3-----|
G|---------------/4---2~------------------2---------------|
D|-----0-------------------0------------------------------|
A|--------------------------------------------------------|
E|--------------------------------------------------------|
  "Hmmmm  oooh  yeahhh yeah"
e|--------0--1--0------0~---|
B|-0---3-----------3---2~---|
G|---------------------2~---|
D|---------------------2~---|
A|---------------------0~---|
E|-3------------------------|

[Verse]
D             D/F#
Looks like we made it
G                  A
Look how far we've come my baby
D                  D/F#
We mighta took the long way
G             A
We knew we'd get there someday

[Refrain]
D          D/F#    G            A
They said, "I bet they'll never make it"
           D         G      A
But just look at us holding on
              D             G       A
We're still together still going strong

[Chorus]
G
(You're still the one)
D                        G
You're still the one I run to
Em                 A
The one that I belong to
D                      G      A
You're still the one I want for life
G
(You're still the one)
D                         G
You're still the one that I love
Em              A
The only one I dream of
D                      G          A
You're still the one I kiss good night


[Verse]
D         D/F#
Ain't nothin' better
G            A
We beat the odds together
D                 D/F#
I'm glad we didn't listen
G                 A
Look at what we would be missin'

[Refrain]
D          D/F#    G            A
They said, "I bet they'll never make it"
           D         G      A
But just look at us holding on
              D             G       A
We're still together still going strong

[Chorus]
G
(You're still the one)
D                        G
You're still the one I run to
Em                 A
The one that I belong to
D                      G      A
You're still the one I want for life
G
(You're still the one)
D                         G
You're still the one that I love
Em              A
The only one I dream of
D                      G          A
You're still the one I kiss good night

(You're still the one)

D G A D G A

[Chorus]
G
(You're still the one)
D                        G
You're still the one I run to
Em                 A
The one that I belong to
D                      G      A
You're still the one I want for life
G
(You're still the one)
D                         G
You're still the one that I love
Em              A
The only one I dream of
D                      G          A
You're still the one I kiss good night

[Outro] (single strum for each chord)
D             D/F#
So glad we made it
G                  A    A   A   A     D
Look how far we've come  my   baby.



************************************

| /   Slide up
| ~   Vibrato

************************************

            
            
Suggest correction
Creating personal tab
Creating personal tab
You can edit any tab online and save it as your Personal.

You can edit, replace or remove any tab part or add personal notes – all changes will be seen only by you.

Personal tabs can be accessed anytime from any device, even offline.
Learn more »
Give kudos to tab author, rate the tab!
1 2 3 4 5
comments
print report bad tab
guest
You may want to rate the tab now too:
select rating
Wanna post a correction for this tab? Suggest correction