Oops, an error
Loading. Please wait.

Maa Tab

version 1
version 1

Whole song

Interactive

3,877 views 1 this week
no commentswrite comment
1 2 3 4 5
please rate
add to favorites
launch autoscroll
font size
0
reset
how to read this tab
guitar tuner
Autoscroll
slow
fast
+/-
esc
set tempo
stop
Help us to improve Ultimate-Guitar.com Take our survey!
×
Author
Verse:
e|-0-3-3-1-3-3/5-1-3-3-7-7-7-7-7-8-5-5------|
B|-------------------------------------6-8--|
G|------------------------------------------|
D|------------------------------------------|
A|------------------------------------------|
E|------------------------------------------|  x2

e|---------8-8-8h10-7-8-8-10-8-10-8-5/8-----|
B|-8-8-10-10--------------------------------|
G|------------------------------------------|
D|------------------------------------------|
A|------------------------------------------|
E|------------------------------------------|

Music :
e|-2/4-2------------|
B|------------------|
G|------0-2-5-5/7-5-|
D|------------------|
A|------------------|
E|------------------|   x2

e|-------------------------------------|
B|------------------------8-8----------|
G|------5-7/9-7-7/10-9-10-----10-9-10--|
D|--5-7--------------------------------|
A|-------------------------------------|
E|-------------------------------------|

e|-----------------------------8-10-10h12-8-----|
B|------------------------8-10------------------|
G|------5-7/9-7-7/10-9-10-----------------------|
D|--5-7-----------------------------------------|
A|----------------------------------------------|
E|----------------------------------------------|

Verse 2:
e|-10-10-8-8-12-12-10-10-10-10-8-8---8-10-10/11-8-10-10/12-|
B|---------------------------------9-----------------------|
G|---------------------------------------------------------|
D|---------------------------------------------------------|
A|---------------------------------------------------------|
E|---------------------------------------------------------|

Then Repeat The Whole Again.............
Hope YOu Like it.................................!!!!!
Suggest correction
Give kudos to tab author, rate the tab!
1 2 3 4 5
comments
print report bad tab
guest
You may want to rate the tab now too:
select rating
Wanna post a correction for this tab? Suggest correction