Oops, an error
Loading. Please wait.

Creatures Tab

18,313 views 54 this week
3 commentsread comments
1 2 3 4 5
x 15
add to favorites
launch autoscroll
font size
0
reset
how to read this tab
guitar tuner
Autoscroll
slow
fast
+/-
esc
set tempo
stop
Help us to improve Ultimate-Guitar.com Take our survey!
×
Difficulty
Capo
novice
5th fret
-------------------------------------------------------------------------------
                             Creatures - Shannon Saunders
-------------------------------------------------------------------------------
Tabbed by: Izzy
E-mail: izzy.morris@hotmail.com
It's my first ever tab, so sorry if there are any mistakes!

Tuning: Standard
Capo: 5th fret


[Intro]

e|----------------------------------------------------------------|
B|------------------------0-------------------------------0-------|
G|--------0-------------------------------0-----------------------|
D|----2-------2-------2-------2-------2-------2-------2-------2---|
A|3---------------3---------------3---------------3---------------|
E|----------------------------------------------------------------|

e|----------------------------------------------------------------|
B|------------------------0---------------------------------------|
G|--------0-------------------------------0---------------0-------|
D|----2-------2-------2-------2-------2-------2-------2-------2---|
A|0---------------0---------------0---------------0---------------|
E|----------------------------------------------------------------|

e|----------------------------------------------------------------|
B|------------------------0-------------------------------0-------|
G|--------0-------------------------------0-----------------------|
D|----0-------0-------0-------0-------0-------0-------0-------0---|
A|2---------------2---------------2---------------2---------------|
E|----------------------------------------------------------------|

e|----------------------------------------------------------------|
B|----------------------------------------------------------------|
G|--------0---------------0---------------0---------------0-------|
D|----0-------0-------0-------0-------0-------0-------0-------0---|
A|2---------------2-----------------------------------------------|
E|--------------------------------0---------------0---------------|


[Verse]

e|----------------------------------------------------------------|
B|----------------------------------------------------------------|
G|--------0---------------0---------------0---------------0-------|
D|----2-------2-------2-------2-------2-------2-------2-------2---|
A|3---------------3---------------3---------------3---------------|
E|----------------------------------------------------------------|

e|----------------------------------------------------------------|
B|----------------------------------------------------------------|
G|--------0---------------0---------------0---------------0-------|
D|----2-------2-------2-------2-------2-------2-------2-------2---|
A|0---------------0---------------0---------------0---------------|
E|----------------------------------------------------------------|

e|----------------------------------------------------------------|
B|----------------------------------------------------------------|
G|--------0---------------0---------------0---------------0-------|
D|----0-------0-------0-------0-------0-------0-------0-------0---|
A|2---------------2---------------2---------------2---------------|
E|----------------------------------------------------------------|

e|----------------------------------------------------------------|
B|----------------------------------------------------------------|
G|--------0---------------0---------------0---------------0-------|
D|----0-------0-------0-------0-------0-------0-------0-------0---|
A|2---------------2-----------------------------------------------|
E|--------------------------------0---------------0---------------|


[Chorus]

e|----------------------------------------------------------------|
B|--------0---------------0---------------0---------------0-------|
G|--------0---------------0---------------0---------------0-------|
D|----2-------2-------2-------2-------2-------2-------2-------2---|
A|3---------------3---------------3---------------3---------------|
E|----------------------------------------------------------------|

e|----------------------------------------------------------------|
B|--------0---------------0---------------0---------------0-------|
G|--------0---------------0---------------0---------------0-------|
D|----2-------2-------2-------2-------2-------2-------2-------2---|
A|0---------------0---------------0---------------0---------------|
E|----------------------------------------------------------------|

e|----------------------------------------------------------------|
B|--------0---------------0---------------0---------------0-------|
G|--------0---------------0---------------0---------------0-------|
D|----0-------0-------0-------0-------0-------0-------0-------0---|
A|2---------------2---------------2---------------2---------------|
E|----------------------------------------------------------------|

e|----------------------------------------------------------------|
B|--------0---------------0---------------0---------------0-------|
G|--------0---------------0---------------0---------------0-------|
D|----0-------0-------0-------0-------0-------0-------0-------0---|
A|2---------------2---------------2---------------2---------------|
E|----------------------------------------------------------------|

You have got me thinkin' in my mind again.
And tell me secrets, hold me blind, I'm listenin'.
Say people don't move like us,
your thumb on my lips, I blush, those fingertips
have got me under your spell.
You know me so very well,
kiss me, I'll never tell.

We are creatures, fight to come alive.
Don't listen to what they teach us, sold me to the night.
Our toes sunk in the beaches,
searching the mounds inside.
Face of wild features under the midnight sky,
kiss me under the midnight.

And it's true you turn my winter blows into summer bliss.
And oh, pull me closer and don't break your,
don't break your promises.

You say people don't move like us,
your thumb on my lips, I blush, those fingertips
they've got me under your spell.
You know me so very well,
kiss me, I'll never tell.

You say we are creatures, fight to come alive.
Don't listen to what they teach us, sold me to the night.
Our toes sunk in the beaches,
searching the mounds inside.
Face of wild features, under the midnight sky,
kiss me under the midnight, oh.

You say people don't move like us, no.
Your tongue on my lips, I blush, no no.
People don't move like us, no.

************************************

| /   slide up
| \   slide down
| h   hammer-on
| p   pull-off
| ~   vibrato
| +   harmonic
| x   Mute note
| b   Bend
| pb  Pre-bend
| br  Bend release
| pbr Pre-bend release
| brb Bend release bend

************************************
Suggest correction
comments
print report bad tab
3 comments total.
0 reply
Zanssy 129 Aug 05, 2014 02:00 AM

THANK YOU SO MUCH FOR TABBING THIS

+1 reply
anderssoncaro 17,479 Aug 06, 2014 05:31 AM

Great Tab!
But I do believe the Chorus is played like this though :)


e|----------------------------------------------------------------|
B|--------0---------------0---------------0---------------0-------|
G|----------------------------------------------------------------|
D|----2-------2-------2-------2-------2-------2-------2-------2---|
A|3---------------3---------------3---------------3---------------|
E|----------------------------------------------------------------|

e|----------------------------------------------------------------|
B|--------1---------------1---------------1---------------1-------|
G|----------------------------------------------------------------|
D|----2-------2-------2-------2-------2-------2-------2-------2---|
A|0---------------0---------------0---------------0---------------|
E|----------------------------------------------------------------|

e|----------------------------------------------------------------|
B|--------0---------------0---------------0---------------0-------|
G|----------------------------------------------------------------|
D|----0-------0-------0-------0-------0-------0-------0-------0---|
A|2---------------2---------------2---------------2---------------|
E|----------------------------------------------------------------|

e|----------------------------------------------------------------|
B|--------0---------------0---------------0---------------0-------|
G|----------------------------------------------------------------|
D|----0-------0-------0-------0-------0-------0-------0-------0---|
A|2---------------2---------------2---------------2---------------|
E|----------------------------------------------------------------|

0 reply
ijustine3 10 Feb 11, 2016 12:58 PM

Izzy!! thank you omg
- Justine

guest
You may want to rate the tab now too:
select rating
Wanna post a correction for this tab? Suggest correction