Oops, an error
Loading. Please wait.

The Hem Around Us Tab

607 views 1 this week
no commentswrite comment
1 2 3 4 5
please rate
add to favorites
launch autoscroll
font size
0
reset
how to read this tab
guitar tuner
Autoscroll
slow
fast
+/-
esc
set tempo
stop
Help us to improve Ultimate-Guitar.com Take our survey!
×
Author
-------------------------------------------------------------------------------

                     THE HEM AROUND US - Shannon Wright

-------------------------------------------------------------------------------

From the album "Dyed in the wool"

Tabbed by: aGuyWith2ears

Tuning: D G D G B E  (Gadd6 tuning)
tune low E down to D and A string down to G

The time signature is is either 6/8 or 3/4, I'm not sure.

Intro 

e|--7-----7--7-----7--8-----8--7-----7--|--6-----6--5-----5--3-----3--3-----3--|
B|-----0--------0--------0--------0-----|-----0--------0--------0--------0-----|
G|--------------------------------------|--------------------------------------|
D|--------------------------------------|--------------------------------------|
G|--7--7--7--8--8--8--9--9--9--8--8--8--|--6--6--6--5--5--5--4--4--4--4--4--4--|
D|--------------------------------------|--------------------------------------|


e|--7-----7--7-----7--8-----8--7-----7--|--7-----7--7-----7--8-----8--7-----7--|
B|-----0--------0--------0--------0-----|-----0--------0--------0--------0-----|
G|--------------------------------------|--------------------------------------|
D|--------------------------------------|--------------------------------------|
G|--7--7--7--8--8--8--9--9--9--8--8--8--|--7--7--7--8--8--8--9--9--9--8--8--8--|
D|--------------------------------------|--------------------------------------|


e|--6-----6--5-----5--3-----3--3-----3--|--6-----6--5-----5--3-----3--3-----3--|
B|-----0--------0--------0--------0-----|-----0--------0--------0--------0-----|
G|--------------------------------------|--------------------------------------|
D|--------------------------------------|--------------------------------------|
G|--6--6--6--5--5--5--4--4--4--4--4--4--|--6--6--6--5--5--5--4--4--4--4--4--4--|
D|--------------------------------------|--------------------------------------|


Verses

e|--7-----7--7-----7--8-----8--7-----7--|--7-----7--7-----7--8-----8--7-----7--|
B|-----0--------0--------0--------0-----|-----0--------0--------0--------0-----|
G|--------------------------------------|--------------------------------------|
D|--------------------------------------|--------------------------------------|
G|--7--7--7--8--8--8--9--9--9--8--8--8--|--7--7--7--8--8--8--9--9--9--8--8--8--|
D|--------------------------------------|--------------------------------------|
1  You fiend, you friend, you confidant You hold me against my will
2  This wire, this mane, this coronet You hold me against my will


e|--6-----6--5-----5--3-----3--3-----3--|--6-----6--5-----5--3-----3--3-----3--|
B|-----0--------0--------0--------0-----|-----0--------0--------0--------0-----|
G|--------------------------------------|--------------------------------------|
D|--------------------------------------|--------------------------------------|
G|--6--6--6--5--5--5--4--4--4--4--4--4--|--6--6--6--5--5--5--4--4--4--4--4--4--|
D|--------------------------------------|--------------------------------------|
1  I scurry and scant this hectic step  You climb adrift this boorish racket
2  I rummage and sear this furious step You climb adrift this boorish racket


Chorus (repeat twice)

e|--12---12-12----12-11----11-10----10--|--7-----7--7-----7--8-----8--7-----7--|
B|-----0--------0--------0--------0-----|-----0--------0--------0--------0-----|
G|--------------------------------------|--------------------------------------|
D|--------------------------------------|--------------------------------------|
G|--9--9--9--9--9--9--8--8--8--7--7--7--|--7--7--7--8--8--8--9--9--9--8--8--8--|
D|--------------------------------------|--------------------------------------|
    It's you, it's you, come and see you're ridding me of my plan


Once you've learnt the verse and chorus riffs you'll get to the tricky part :
going from one fingerpicking pattern to another in the Bridge riff. Instead of 
droning with the B string, use the E string in the Bridge riff.



Bridge

e|-----0--------0--------0--------0-----|-----0--------0--------0--------0-----|
B|--8-----8--7-----7--10----10-5-----5--|--8-----8--7-----7--10----10-5-----5--|
G|--------------------------------------|--------------------------------------|
D|--------------------------------------|--------------------------------------|
G|--9--9--9--8--8--8--11-11-11-6--6--6--|--9--9--9--8--8--8--11-11-11-6--6--6--|
D|--------------------------------------|--------------------------------------|
   Ohoohhhhhhh...


e|-----0--------0--------0--------0-----|-----0--------0--------0--------0--7--|
B|--4-----4--2-----2--2-----2--2-----4--|--4-----4--2-----2--2-----2--2--------|
G|--------------------------------------|--------------------------------------|
D|--------------------------------------|--------------------------------------|
G|--4--4--4--3--3--3--2--2--2--3--3--3--|--4--4--4--3--3--3--2--2--2--3--3--6--|
D|--------------------------------------|--------------------------------------|
      You and me could ride this fleet     You and me could drive the sea


Outro (play this after the last bridge)

e|--7-----7--7-----7--8-----8--7-----7--|--6-----6--5-----5--3----------------||
B|-----0--------0--------0--------0-----|-----0--------0-----0----------------||
G|--------------------------------------|-------------------------------------||
D|--------------------------------------|-------------------------------------||
G|--7--7--7--8--8--8--9--9--9--8--8--8--|--6--6--6--5--5--5--4----------------||
D|--------------------------------------|-------------------------------------||



EAT, SLEEP, PLAY GUITAR. NOTHING ELSE MATTERS.
Suggest correction
Give kudos to tab author, rate the tab!
1 2 3 4 5
comments
print report bad tab
guest
You may want to rate the tab now too:
select rating
Wanna post a correction for this tab? Suggest correction