Oops, an error
Loading. Please wait.

Youll Be The Death Tab

1,468 views 9 this week
no commentswrite comment
1 2 3 4 5
please rate
add to favorites
launch autoscroll
font size
0
reset
how to read this tab
guitar tuner
Tab Pro tools
  • play this tab
  • loop segment
  • change instrument
  • show fretboard
  • metronome
Autoscroll
slow
fast
+/-
esc
set tempo
stop
Shannon Wright's was a member of the band Crowsdell before it broke up, she's been doing 
stuff for maybe 5 years now.  Her latest album, Over the Sun, was just released, but 
not much official information available online about it, though plenty of reviews.
http://www.knowwave.com/shannonwright/  -- Shannon's official site
http://www.pitchforkmedia.com/record-reviews/w/wright_shannon/over-the-sun.shtml  -- 
lame review
http://indieworkshop.com/reviews/868/  -- Another review

Shannon Wright - "You'll Be The Death"
Over the Sun
Tabbed by Daniel (quelreth@hotmail.com)

Left out the little differences in fingering, this is the basic stuff... improvise if 
want, it's not complicated.

Order
Part 1a x 3, Part 1b, Part 1a x 2, Part 1c, Part 2, Part 2a, Part 1a x 2,
Part 1b, Part 1c, Part 2, Part 2a, Part 1, Part 1b, Finisher

Part 1a
---------------------------------------------------------------------------|
----8--------8--------8--------8--------8-------8-------8-------8----------|
------8-8------8-8------8-8------8--------8-8-----8-8-----8-8-----8--------|
-10-------10-------10-------10-----10-9-------9-------9-------9-----9------|
---------------------------------------------------------------------------|
---------------------------------------------------------------------------|

---------------------------------------------------------------------------|
---8-------8-------8-------8-------6-------6-------6-------6---------------|
-----7-7-----7-7-----7-7-----7-------6-6-----6-6-----6-6-----6-------------|
-8-------8-------8-------8-----8-8-------8-------8-------8-----8-----------|
---------------------------------------------------------------------------|
---------------------------------------------------------------------------|


Part 1b
---------------------------------------------------------------------------|
---6-------6-------6-------6-----------------------------------------------|
-----6-6-----6-6-----6-6-----6---------------------------------------------|
-7-------7-------7-------7-----7-------------------------------------------|
---------------------------------------------------------------------------|
---------------------------------------------------------------------------|


Part 1c
---------------------------------------------------------------------------|
---6-------6-------6-------6-------6-------6-------6-------6---------------|
-----5-5-----5-5-----5-5-----5-5-----5-5-----5-5-----5-5-----5-------------|
-6-------6-------6-------6-------6-------6-------6-------6-----6-----------|
---------------------------------------------------------------------------|
---------------------------------------------------------------------------|


Part 2
---------------------------------------------------------------------------|
-8----------8----------8----8----8----8----8-------8-------8---8---8---8---|
---8--8--8----8--8--8----8----8----8----8----8-8-8---8-8-8---8---8---8---8-|
---10-10-10---10-10-10---10---10---10---10---9-9-9---9-9-9---9---9---9---9-|
---------------------------------------------------------------------------|
---------------------------------------------------------------------------|

---------------------------------------------------------------------------|
-8-------8-------8---8---8---8---6-------6-------6---6---6---6-------------|
---7-7-7---7-7-7---7---7---7---7---6-6-6---6-6-6---6---6---6---6-----------|
---8-8-8---8-8-8---8---8---8---8---8-8-8---8-8-8---8---8---8---8-----------|
---------------------------------------------------------------------------|
---------------------------------------------------------------------------|

Part 2a
---------------------------------------------------------------------------|
-8----------8----------8----8----8----8----8-------8-------8---8---8---8---|
---8--8--8----8--8--8----8----8----8----8----8-8-8---8-8-8---8---8---8---8-|
---10-10-10---10-10-10---10---10---10---10---9-9-9---9-9-9---9---9---9---9-|
---------------------------------------------------------------------------|
---------------------------------------------------------------------------|

---------------------------------------------------------------------------|
-8-------8-------8---8---8---8-----6-------6-------6-------6---------------|
---7-7-7---7-7-7---7---7---7---7-----6-6-----6-6-----6-6-----6-------------|
---8-8-8---8-8-8---8---8---8---8-8-------8-------8-------8-----8-----------|
---------------------------------------------------------------------------|
---------------------------------------------------------------------------|

---------------------------------------------------------------------------|
---6-------6-------6-------6-------6-------6-------6-------6---------------|
-----6-6-----6-6-----6-6-----6-------5-5-----5-5-----5-5-----5-------------|
-7-------7-------7-------7-----7-6-------6-------6-------6-----6-----------|
---------------------------------------------------------------------------|
---------------------------------------------------------------------------|

Finisher
---------------------------------------------------------------------------|
---6-------6-------6-------6-------8---------------------------------------|
-----5-5-----5-5-----5-5-----5-----8---------------------------------------|
-6-------6-------6-------6-----9---10--------------------------------------|
---------------------------------------------------------------------------|
---------------------------------------------------------------------------|
comments
We did not receive enough feedback on this tab! Please rate:
print report bad tab
1 2 3 4 5
I want to post or [tab]
guest
You may want to rate the tab now too:
select rating
Please do not post tabs as comments. Select "correction" instead!