Oops, an error
Loading. Please wait.

Drifting tab

34 views 1 this week
no commentswrite comment
1 2 3 4 5
2 more votes to show rating
add to favorites
×
Save as Personal and add changes to this tab that will be seen only by you. Learn more ›
×
You can save this tab as Personal to edit and correct it or add notes. All changes will be seen only by you. Learn more »
launch autoscroll
font size
0
reset
how to read this tab
guitar tuner
edit
Autoscroll
slow
fast
+/-
esc
set tempo
stop
[Intro/Main Riff]
 Mike (dotted 8th note delay)
e|--------------------------------|---------------------------------|
B|--------------------------------|---------------------------------|
G|----0-----0---------0-----0-----|----0-----0---------0-----0------|
D|--0-----0-----0---0-----0-----0-|--0-----0-----0---0-----0-----0--|x2 
A|2-----3-----3---3-----3-----3---|7-----9-----9---9-----9-----9----|
D|--------------------------------|---------------------------------|
  . . . . . . . . . . . . . . . .  . . . . . . . . . . . . . . . . 

 Kyle
e|--------------------------------|---------------------------------------------------|
B|-----15------15-----------------|---------------------------------------------------|
G|--12------12--------12----------|-----12--------12----14-------------------<12>-----|
D|--------------------------------|--12--------12------------------------<12>----<12>-|
A|--------------------------------|----------------------------------<12>-------------|
D|--------------------------------|---------------------------------------------------|

[Verse I] 
 Mike (dotted 8th note delay)
e|--------------------------------|---------------------------------|
B|--------------------------------|---------------------------------|
G|----0-----0---------0-----0-----|----0-----0---------0-----0------|
D|--0-----0-----0---0-----0-----0-|--0-----0-----0---0-----0-----0--|x2 
A|2-----3-----3---3-----3-----3---|7-----9-----9---9-----9-----9----|
D|--------------------------------|---------------------------------|
  . . . . . . . . . . . . . . . .  . . . . . . . . . . . . . . . . 

 Kyle (volume swell with delay)
e|-----------------------|------------------------------------------|
B|7b8--------------------|pb(10)12br10------------------------------|
G|-----------------------|------------------------------------------|
D|-----------------------|------------------------------------------|
A|-----------------------|------------------------------------------|
D|-----------------------|------------------------------------------|

e|-----------------------|------------------------------------------|
B|7b8--------------------|12b15-------------------------------------|
G|-----------------------|------------------------------------------|
D|-----------------------|------------------------------------------|
A|-----------------------|-------------------------------------12\\\|
D|-----------------------|-------------------------------------12\\\|

(So what do I have to do to get through to you)
 Mike
e|--------------------------------|---------------------------------|
B|--------------------------------|---------------------------------|
G|----0-----0-----0-----0-----0---|----0-----0-----0-----0-----0----|
D|--0-----0-----0-----0-----0---0-|--0-----0-----0-----0-----0---0--| 
A|2-----3-----3-----3-----3-------|7-----9-----9-----9-----9--------|
D|--------------------------------|---------------------------------|
  . . . . . . . . . . . . . . . .  . . . . . . . . . . . . . . . . 

e|--------------------------------|---------------------------------|
B|--------------------------------|---------------------------------|
G|----0-----0-----0-----0-----0---|----0-----0-----0-----0-----0----|
D|--0-----0-----0-----0-----0---0-|--0-----0-----0-----0-----0---0--| 
A|2-----3-----3-----3-----3-------|7-----9-----9-----9-----9--------|
D|--------------------------------|---------------------------------|
  . . . . . . . . . . . . . . . .

 Kyle (rhythm guitar)
e|--------------------------------|--------------------------------|
B|--------------------------------|--------------------------------|
G|--------------------------------|0-0-0-----------------0-0-0-0---|
D|0-0-0-2-2-2-2-2-2-2-2-2-2-2-2-2-|2-2-2-4-4-4-4-4-4-4-4-5-5-4-4-4-| 
A|2-2-2-3-3-3-3-3-3-3-3-3-3-3-3-3-|------5-5-5-5-5-5-5-5---------5-| 
D|--------------------------------|--------------------------------|
  . . . . . . . . . . . . . . . . . . . . . . . . . . . . . . . . 

e|--------------------------------|----------------------------------|
B|--------------------------------|----------------------------------|
G|--------------------------------|0-0-0-------------------------<7>-|
D|0-0-0-2-2-2-2-2-2-2-2-2-2-2-2-2-|2-2-2-4-4-4-4-4-4-4-4-4-4-4-4-<7>-| 
A|2-2-2-3-3-3-3-3-3-3-3-3-3-3-3-3-|------5-5-5-5-5-5-5-5-5-5-5-5-<7>-| 
D|--------------------------------|----------------------------------|
  . . . . . . . . . . . . . . . . . . . . . . . . . 

[Chorus I]
 Travis
e|--------------------------------|----------------------------------|
B|--------------------------------|----------------------------------|
G|4----5---------------5----------|----------------------------------|
D|5----5---------------5----------|2-----4-----4---------------------| x2
A|2----3---------------3----------|2-----0-----0---------------------|
D|--------------------------------|2-----0-----0---------------------|

 Mike (Dotted 8th note Delay)
e|2----3---------3-----5----------|3-----2---------2-----0-----------|
B|--3----3---3-----3-----3---3----|--3-----3---3-----3-----3---3-----|
G|----0----0---0-----0-----0----0-|----0-----0---0-----0-----0----0--|
D|--------------------------------|----------------------------------| x2
A|--------------------------------|----------------------------------|
D|--------------------------------|----------------------------------|

 Kyle
e|2----3---------------3----------|3-----5-----5---------------------|
B|3----3---------------3----------|5-----3-----3---------------------|
G|4----5---------------5----------|4-----2-----2---------------------|
D|4----5---------------5----------|5-----0-----0---------------------| x2
A|--------------------------------|------------0---------------------|
D|--------------------------------|------------0---------------------|

[Post Chorus]
 Mike (dotted 8th note delay)
e|--------------------------------|---------------------------------|
B|--------------------------------|---------------------------------|
G|----0-----0---------0-----0-----|----0-----0---------0-----0------|
D|--0-----0-----0---0-----0-----0-|--0-----0-----0---0-----0-----0--|x2 
A|2-----3-----3---3-----3-----3---|7-----9-----9---9-----9-----9----|
D|--------------------------------|---------------------------------|
  . . . . . . . . . . . . . . . .  . . . . . . . . . . . . . . . . 

 Kyle
e|---------------------------------------------------------------------------|
B|-----15------15-------------15-----------15--------------------------------|
G|--12------12--------12------------12-----14b16br14b16br14------------------|
D|---------------------------------------------------------------------------|
A|---------------------------------------------------------------------------|
D|---------------------------------------------------------------------------|

e|---------------------------------------------------------------------------|
B|-----------------------------------------15--------------------------------|
G|-----12------12-----14----------14-------14b16br14b16br14------------------|
D|--12------12----------------12------1--------------------------------------|
A|---------------------------------------------------------------------------|
D|---------------------------------------------------------------------------|

e|---------------------------------------------------------------------------|
B|-----15------15-------------15-----------15--------------------------------|
G|--12------12--------12------------12-----14b16br14b16br14------------------|
D|---------------------------------------------------------------------------|
A|---------------------------------------------------------------------------|
D|---------------------------------------------------------------------------|

e|---------------------17---------------|
B|---------------------15---------------|
G|-----12------12------14---------------|
D|--12------12---------12---------------|
A|--------------------------------------|
D|--------------------------------------|

[Verse II] 
 Mike (dotted 8th note delay)
e|--------------------------------|---------------------------------|
B|--------------------------------|---------------------------------|
G|----0-----0---------0-----0-----|----0-----0---------0-----0------|
D|--0-----0-----0---0-----0-----0-|--0-----0-----0---0-----0-----0--|x2 
A|2-----3-----3---3-----3-----3---|7-----9-----9---9-----9-----9----|
D|--------------------------------|---------------------------------|
  . . . . . . . . . . . . . . . .  . . . . . . . . . . . . . . . . 

(So what do I have to do to get through to you)
 Mike
e|--------------------------------|---------------------------------|
B|--------------------------------|---------------------------------|
G|----0-----0-----0-----0-----0---|----0-----0-----0-----0-----0----|
D|--0-----0-----0-----0-----0---0-|--0-----0-----0-----0-----0---0--| 
A|2-----3-----3-----3-----3-------|7-----9-----9-----9-----9--------|
D|--------------------------------|---------------------------------|
  . . . . . . . . . . . . . . . .  . . . . . . . . . . . . . . . . 

e|--------------------------------|---------------------------------|
B|--------------------------------|---------------------------------|
G|----0-----0-----0-----0-----0---|----0-----0-----0-----0-----0----|
D|--0-----0-----0-----0-----0---0-|--0-----0-----0-----0-----0---0--| 
A|2-----3-----3-----3-----3-------|7-----9-----9-----9-----9--------|
D|--------------------------------|---------------------------------|
  . . . . . . . . . . . . . . . .

 Kyle (rhythm guitar)
e|--------------------------------|--------------------------------|
B|--------------------------------|--------------------------------|
G|--------------------------------|0-0-0-----------------0-0-0-0---|
D|0-0-0-2-2-2-2-2-2-2-2-2-2-2-2-2-|2-2-2-4-4-4-4-4-4-4-4-5-5-4-4-4-| 
A|2-2-2-3-3-3-3-3-3-3-3-3-3-3-3-3-|------5-5-5-5-5-5-5-5---------5-| 
D|--------------------------------|--------------------------------|
  . . . . . . . . . . . . . . . . . . . . . . . . . . . . . . . . 

e|--------------------------------|----------------------------------|
B|--------------------------------|----------------------------------|
G|--------------------------------|0-0-0-------------------------<7>-|
D|0-0-0-2-2-2-2-2-2-2-2-2-2-2-2-2-|2-2-2-4-4-4-4-4-4-4-4-4-4-4-4-<7>-| 
A|2-2-2-3-3-3-3-3-3-3-3-3-3-3-3-3-|------5-5-5-5-5-5-5-5-5-5-5-5-<7>-| 
D|--------------------------------|----------------------------------|
  . . . . . . . . . . . . . . . . . . . . . . . . . 

[Chorus II] 
 Travis
e|--------------------------------|----------------------------------|
B|--------------------------------|----------------------------------|
G|4----5---------------5----------|----------------------------------|
D|5----5---------------5----------|2-----4-----4---------------------| x4
A|2----3---------------3----------|2-----0-----0---------------------|
D|--------------------------------|2-----0-----0---------------------|

 Mike (Dotted 8th note Delay)
e|2----3---------3-----5----------|3-----2---------2-----0-----------|
B|--3----3---3-----3-----3---3----|--3-----3---3-----3-----3---3-----|
G|----0----0---0-----0-----0----0-|----0-----0---0-----0-----0----0--|
D|--------------------------------|----------------------------------| x4
A|--------------------------------|----------------------------------|
D|--------------------------------|----------------------------------|

 Kyle
e|2----3---------------3----------|3-----5-----5---------------------|
B|3----3---------------3----------|5-----3-----3---------------------|
G|4----5---------------5----------|4-----2-----2---------------------|
D|4----5---------------5----------|5-----0-----0---------------------| x2
A|--------------------------------|------------0---------------------|
D|--------------------------------|------------0---------------------|

[Chorus Part B] 
 Kyle
e|---------------------------------------------------------|
B|-----15------15-------------15-----------15--------------|
G|--12------12--------12------------12-----14b16br14-12----|
D|---------------------------------------------------------|
A|---------------------------------------------------------|
D|---------------------------------------------------------|

e|---------------------------------------------------------|
B|-----------------------------------------15--------------|
G|-----12------12-----14----------14-------14b16br14-12----|
D|--12------12----------------12---------------------------|
A|---------------------------------------------------------|
D|---------------------------------------------------------|

e|---------------------------------------------------------|
B|-----15------15-------------15-----------15--------------|
G|--12------12--------12------------12-----14b16br14-12----|
D|---------------------------------------------------------|
A|---------------------------------------------------------|
D|---------------------------------------------------------|

e|---------------------17---------------|
B|---------------------15---------------|
G|-----12------12------14---------------|
D|--12------12---------12---------------|
A|--------------------------------------|
D|--------------------------------------|

[Bridge]
Travis
e|---------------------------------------------------------------------|
B|---------------------------------------------------------------------|
G|x-x-7-x-x-7-x-x-7-x-x-7-x-x-----x-x-7-x-x-7-x-x-9-9-9-9-9/7-7-7------|
D|----------------------------7/9--------------------------------------|
A|---------------------------------------------------------------------|
D|---------------------------------------------------------------------|

e|---------------------------------------------------------------------|
B|------------------------------------------------8-8-8-8-8/10-10-10---|
G|x-x-7-x-x-7-x-x-7-x-x-7-x-x-----x-x-7-x-x-7-x-x----------------------|x2
D|----------------------------7/9--------------------------------------|
A|---------------------------------------------------------------------|
D|---------------------------------------------------------------------|

Mike
e|--------------------------------|------------------------------------|
B|--------------------------------|------------------------------------|
G|4-4-4-5-5-5-5-5-5-5-5-5-5-5-5-5-|4-4-4-5-5-5-5-7-7-7-7-7-7-7-7-7-7-7-|
D|5-5-5-5-5-5-5-5-5-5-5-5-5-5-5-5-|5-5-5-5-5-5-5-7-7-7-7-7-7-7-7-7-7-7-|x2
A|2-2-2-3-3-3-3-3-3-3-3-3-3-3-3-3-|2-2-2-3-3-3-3-5-5-5-5-5-5-5-5-5-5-5-|
D|--------------------------------|------------------------------------|

Kyle
e|-----15-------15-----------------------------------------|
B|--12-------15-------13-----------15----------------------|
G|---------------------------------14b16br14-12------------|
D|---------------------------------------------------------|
A|---------------------------------------------------------|
D|---------------------------------------------------------|

e|-----15-------17/19-17-----------------------------------|
B|--15-------15--------------------19b20br19--15-----------|
G|---------------------------------------------------------|
D|---------------------------------------------------------|
A|---------------------------------------------------------|
D|---------------------------------------------------------|

e|-----15-------15----------------------|----------------------------------------|
B|--12-------15-------13----------------|15-------------------15-----------------|
G|--------------------------------------|14b16----12h14p12-----------------------|
D|--------------------------------------|------------------12--------------------|
A|--------------------------------------|----------------------------------------|
D|--------------------------------------|----------------------------------------|

[Post Bridge] 
 Mike (dotted 8th note delay)
e|--------------------------------|---------------------------------|
B|--------------------------------|---------------------------------|
G|----0-----0---------0-----0-----|----0-----0---------0-----0------|
D|--0-----0-----0---0-----0-----0-|--0-----0-----0---0-----0-----0--|x2 
A|2-----3-----3---3-----3-----3---|7-----9-----9---9-----9-----9----|
D|--------------------------------|---------------------------------|
  . . . . . . . . . . . . . . . .  . . . . . . . . . . . . . . . . 

(final measure)
 Travis
e|--------------------------------------|
B|--------------------------------------|
G|--------------------------------------|
D|2------4------4------4--------x-x-x-x-| 
A|2------0------0------0--------x-x-x-x-|
D|2------0------0------0--------x-x-x-x-|

 Kyle
e|3-------------5-----------------------|
B|5-------------3-----------------------|
G|4-------------2-----------------------|
D|5------0-------------0--------x-x-x-x-| 
A|-------0-------------0--------x-x-x-x-|
D|-------0-------------0--------x-x-x-x-|

[Chorus III] 
 Travis
e|--------------------------------|----------------------------------|
B|--------------------------------|----------------------------------|
G|4----5---------------5----------|----------------------------------|
D|5----5---------------5----------|2-----4-----4---------------------| x4
A|2----3---------------3----------|2-----0-----0---------------------|
D|--------------------------------|2-----0-----0---------------------|

 Mike (Dotted 8th note Delay)
e|2----3---------3-----5----------|3-----2---------2-----0-----------|
B|--3----3---3-----3-----3---3----|--3-----3---3-----3-----3---3-----|
G|----0----0---0-----0-----0----0-|----0-----0---0-----0-----0----0--|
D|--------------------------------|----------------------------------| x4
A|--------------------------------|----------------------------------|
D|--------------------------------|----------------------------------|

 Kyle
e|2----3---------------3----------|3-----5-----5---------------------|
B|3----3---------------3----------|5-----3-----3---------------------|
G|4----5---------------5----------|4-----2-----2---------------------|
D|4----5---------------5----------|5-----0-----0---------------------| x2
A|--------------------------------|------------0---------------------|
D|--------------------------------|------------0---------------------|

[Chorus Part B] 
 Kyle
e|---------------------------------------------------------|
B|-----15------15-------------15-----------15--------------|
G|--12------12--------12------------12-----14b16br14-12----|
D|---------------------------------------------------------|
A|---------------------------------------------------------|
D|---------------------------------------------------------|

e|---------------------------------------------------------|
B|-----------------------------------------15--------------|
G|-----12------12-----14----------14-------14b16br14-12----|
D|--12------12----------------12---------------------------|
A|---------------------------------------------------------|
D|---------------------------------------------------------|

e|---------------------------------------------------------|
B|-----15------15-------------15-----------15--------------|
G|--12------12--------12------------12-----14b16br14-12----|
D|---------------------------------------------------------|
A|---------------------------------------------------------|
D|---------------------------------------------------------|

e|---------------------17---------------|
B|---------------------15---------------|
G|-----12------12------14---------------|
D|--12------12---------12---------------|
A|--------------------------------------|
D|--------------------------------------|

[Outro] 
 Mike (dotted 8th note delay)
e|--------------------------------|---------------------------------|
B|--------------------------------|---------------------------------|
G|----0-----0---------0-----0-----|----0-----0---------0-----0------|
D|--0-----0-----0---0-----0-----0-|--0-----0-----0---0-----0-----0--|x2 
A|2-----3-----3---3-----3-----3---|7-----9-----9---9-----9-----9----|
D|--------------------------------|---------------------------------|
  . . . . . . . . . . . . . . . .  . . . . . . . . . . . . . . . . 

 Kyle (volume swell with delay)
e|-----------------------|------------------------------------------|
B|7b8--------------------|pb(10)12br10------------------------------|
G|-----------------------|------------------------------------------|
D|-----------------------|------------------------------------------|
A|-----------------------|------------------------------------------|
D|-----------------------|------------------------------------------|

e|-----------------------|------------------------------------------|
B|7b8--------------------|12b15-------------------------------------|
G|-----------------------|------------------------------------------|
D|-----------------------|------------------------------------------|
A|-----------------------|------------------------------------------|
D|-----------------------|------------------------------------------|



************************************

| .   Staccato
| b   Bend
| br  Bend release
| \   Slide down
| x   Dead note
| /   Slide up
| h   Hammer-on
| p   Pull-off
 

************************************

            
            
Suggest correction
Creating personal tab
Creating personal tab
You can edit any tab online and save it as your Personal.

You can edit, replace or remove any tab part or add personal notes – all changes will be seen only by you.

Personal tabs can be accessed anytime from any device, even offline.
Learn more »
Give kudos to tab author, rate the tab!
1 2 3 4 5
comments
print report bad tab
guest
You may want to rate the tab now too:
select rating
Wanna post a correction for this tab? Suggest correction