Oops, an error
Loading. Please wait.

Simpatico chords

version 1
version 1

Whole song

  • Simplified intro, added 2nd guitar lead-in.
34 views 1 this week
no commentswrite comment
1 2 3 4 5
2 more votes to show rating
add to favorites
×
Save as Personal and add changes to this tab that will be seen only by you. Learn more ›
×
You can save this tab as Personal to edit and correct it or add notes. All changes will be seen only by you. Learn more »
launch autoscroll
font size
0
reset
transpose
0
reset
simplify chords
display chords
guitar tuner
edit
Autoscroll
slow
fast
+/-
esc
set tempo
stop
Author
Difficulty
Strumming
There is no strumming pattern for this song yet. and get +5 IQ
[Lead Guitar intro]
    C
e|-----------------------------------|
B|----1------------------------------|
G|------0----------------------------|
D|-----------------------------------|
A|3----------------------------------|
E|-----------------------------------|

    C     
e|-----------------------------------|
B|----1------------------------------|
G|------0----------------------------|
D|2----------------------------------|
A|-----------------------------------|
E|-----------------------------------|

    FMaj7      
e|--------0--------------------------|
B|----1-------1----------------------|
G|------2-------2--------------------|
D|3----------------------------------|
A|-----------------------------------|
E|-----------------------------------|

    Amin7  
e|-----------------------------------|
B|----1------------------------------|
G|------2----------------------------|
D|-----------------------------------|
A|0----------------------------------|
E|-----------------------------------|  

  Amin 
e|-----------------------------------|
B|----1------------------------------|
G|------2----------------------------|
D|2----------------------------------|
A|-----------------------------------|
E|-----------------------------------|

  
e|--------0--------------------------|
B|----1-------1----------------------|
G|------0-------0--------------------|
D|3----------------------------------|
A|-----------------------------------|
E|-----------------------------------|


CHORDS: 

  C
e|0----------------------------------|
B|1----------------------------------|
G|2----------------------------------|
D|0----------------------------------|
A|3----------------------------------|
E|x----------------------------------|  
  
  Amin7 
e|0----------------------------------|
B|1----------------------------------|
G|0----------------------------------|
D|2----------------------------------|
A|0----------------------------------|
E|x----------------------------------|

  C/G
e|0----------------------------------|
B|1----------------------------------|
G|0----------------------------------|
D|2----------------------------------|
D|3----------------------------------|
E|3----------------------------------|  

  FMaj7 
e|0----------------------------------|
B|1----------------------------------|
G|2----------------------------------|
D|3----------------------------------|
A|3----------------------------------|
E|x----------------------------------|


(Let intro melody on lead guitar play once then start strumming chords)

C, Amin7 , C/G, FMaj7  x2

C                             Amin7 
I haven't talked to you since last year. And 
C/G                      FMaj7   
even though it's January it's been a long time, but 
C                        Amin7   
why are you reaching out now? 
C/G                              FMaj7 
Even though I'm anxious I should play it cool somehow. 
C                    Amin7 
I hope everything is going fine. 
C/G                     FMaj7  
Ever since we graduated you've been hard to find. And 
C                            Amin7 
I know college is getting to you in the worst way so 
C/G                     FMaj7  
you go out and party on the weekdays to compensate. 
C                        Amin7 
   I remember now you've always been like that while 
C/G             FMaj7      
I stood idly by feeling like crap 'cause
C                           Amin7  
speaking would only make us angry at ourselves. So we'd 
C/G                          FMaj7   
orget all about it and just deal with what we dealt.
C                          Amin7  
   Things were easier when we would lay in bed and watch
C/G                   FMaj7 
sad videos that would make us laugh instead. And your 
C                       Amin7 
best friend never liked me anyway. Now she's 
C/G                                     FMaj7 
halfway 'cross the country, but you're "still together always". 
C                     Amin7                 C/G              FMaj7 
    You're all alone.         Stand by your phone; I am here,       and I will listen. 

C, Amin7 , C/G, FMaj7 

C                 Amin7  
OOOOOOHHHH-OOHHHH-OOOHHHHH

C/G               FMaj7 
OOOOOOHHHH-OOHHHH-OOOHHHHH

C                          Amin7 
  It's been weeks since we last talked, would it be 
C/G                          FMaj7 
weird if I called out of the blue? 
C               Amin7 
   Do I need an excuse?
C/G
   I just miss you. 
FMaj7 
   I just miss you.

C
Suggest correction
Creating personal tab
Creating personal tab
You can edit any tab online and save it as your Personal.

You can edit, replace or remove any tab part or add personal notes – all changes will be seen only by you.

Personal tabs can be accessed anytime from any device, even offline.
Learn more »
Give kudos to tab author, rate the tab!
1 2 3 4 5
comments
print report bad tab
guest
You may want to rate the tab now too:
select rating
Wanna post a correction for this tab? Suggest correction