Oops, an error
Loading. Please wait.

Humble Me tab

version 2
version 2

Whole song

  • Whole song, a bit simplified as there are some var... Show more

Interactive

31 views 1 this week
no commentswrite comment
1 2 3 4 5
3 more votes to show rating
add to favorites
×
Save as Personal and add changes to this tab that will be seen only by you. Learn more ›
×
You can save this tab as Personal to edit and correct it or add notes. All changes will be seen only by you. Learn more »
launch autoscroll
font size
0
reset
how to read this tab
guitar tuner
edit
Autoscroll
slow
fast
+/-
esc
set tempo
stop
Author
Difficulty
About this tab version
Whole song, a bit simplified as there are some variations and fills that are not in this tab. Was this info helpful? Yes No
Tab by basmeyer
Title: Humble Me
Artist: Sharon Jones & The Dap-Kings
Tempo = 83

[Intro]
e|----------------------------------------|
B|----------------------------------------|
G|----------------------------------------|
D|----------------------------------------|
A|--2.----2--2--2.----2.----2--2--2.------|
E|----------------------------------------|

e|----------------------------------------------------------------------------|
B|----------------------------------------------------------------------------|
G|----------------------------------------------------------------------------|
D|-----------------------------------------------------------2----------------|
A|--2.----------2-----2-----2-----2-----2--------4.-------------------4.------|
E|----------------------------------------------------------------------------|

[Chorus]
             E  A  E       B          E           A  E       B  Bb
e|-----------0--0--0----|----------|--0--------0--0--0----|----------|
B|-----------0--2--0----|--4--4----|--0--------0--2--0----|--4--3----|
G|-----------1--2--1----|--4--4----|--1--------1--2--1----|--4--3----|
D|-----------2--2--2----|--4--4----|--2--------2--2--2----|--4--3----|
A|-----------2--0--2----|--2--2----|--2--------2--0--2----|--2--1----|
E|--0--------0-----0----|----------|--0--------0-----0----|----------|

       A
e|-----------------------------------------5.------------------------------------|
B|-----------------------------------------5.------------------------------------|
G|-----------------------------------------6.------------------------------------|
D|-----------------------------7-----------7.------------------------------------|
A|-----------------7-------------------------------------------------------------|
E|--3h-5-------------------------------------------------------------------------|

       B
e|-----------------------------------------7.------------------------------------|
B|-----------------------------------------7.------------------------------------|
G|-----------------------------------------8.------------------------------------|
D|-----------------------------9-----------9.------------------------------------|
A|-----------------9-------------------------------------------------------------|
E|--5h-7-------------------------------------------------------------------------|

       E
e|-----------------------------------------0.------------------------------------|
B|-----------------------------------------0.------------------------------------|
G|-----------------------------------------1.------------------------------------|
D|-----------------------------2-----------2.------------------------------------|
A|-----------------2-------------------------------------------------------------|
E|--2h-0-------------------------------------------------------------------------|

       B
e|-----------------------------------------7.------------------------------------|
B|-----------------------------------------7.------------------------------------|
G|-----------------------------------------8.------------------------------------|
D|-----------------------------9-----------9.------------------------------------|
A|-----------------9-------------------------------------------------------------|
E|--5h-7-------------------------------------------------------------------------|

             E  A  E       B          E           A  E       B  Bb
e|-----------0--0--0----|----------|--0--------0--0--0----|----------|
B|-----------0--2--0----|--4--4----|--0--------0--2--0----|--4--3----|
G|-----------1--2--1----|--4--4----|--1--------1--2--1----|--4--3----|
D|-----------2--2--2----|--4--4----|--2--------2--2--2----|--4--3----|
A|-----------2--0--2----|--2--2----|--2--------2--0--2----|--2--1----|
E|--0--------0-----0----|----------|--0--------0-----0----|----------|

       A
e|-----------------------------------------5.------------------------------------|
B|-----------------------------------------5.------------------------------------|
G|-----------------------------------------6.------------------------------------|
D|-----------------------------7-----------7.------------------------------------|
A|-----------------7-------------------------------------------------------------|
E|--3h-5-------------------------------------------------------------------------|

       B
e|-----------------------------------------7.------------------------------------|
B|-----------------------------------------7.------------------------------------|
G|-----------------------------------------8.------------------------------------|
D|-----------------------------9-----------9.------------------------------------|
A|-----------------9-------------------------------------------------------------|
E|--5h-7-------------------------------------------------------------------------|

       E
e|-----------------------------------------0.------------------------------------|
B|-----------------------------------------0.------------------------------------|
G|-----------------------------------------1.------------------------------------|
D|-----------------------------2-----------2.------------------------------------|
A|-----------------2-------------------------------------------------------------|
E|--2h-0-------------------------------------------------------------------------|

       E7
e|-----------------------------------------0.------------------------------------||
B|-----------------------------------------3.------------------------------------||
G|-----------------------------------------1.------------------------------------||
D|-----------------------------0-----------0.------------------------------------||
A|-----------------2-------------------------------------------------------------||
E|--2h-0-------------------------------------------------------------------------||

[Verse 1]
                                               8x
   A              E                                B
e|----------0.----0L---|--(0)------------------||----------------------|
B|----------2.----0L---|--(0)------------------||--4--4--4--4--4--4----|
G|o------2--2.----1L---|--(1)-----------------o||--4--4--4--4--4--4----|
D|o---2-----------2L---|--(2)--------2--------o||--4--4--4--4--4--4----|
A|-0--------------2L---|--(2)-----------4--2---||--2--2--2--2--2--2----|
E|----------------0L---|--(0)------------------||----------------------|

[Chorus]
             E  A  E       B          E           A  E       B  Bb
e|-----------0--0--0----|----------|--0--------0--0--0----|----------|
B|-----------0--2--0----|--4--4----|--0--------0--2--0----|--4--3----|
G|-----------1--2--1----|--4--4----|--1--------1--2--1----|--4--3----|
D|-----------2--2--2----|--4--4----|--2--------2--2--2----|--4--3----|
A|-----------2--0--2----|--2--2----|--2--------2--0--2----|--2--1----|
E|--0--------0-----0----|----------|--0--------0-----0----|----------|

       A
e|-----------------------------------------5.------------------------------------|
B|-----------------------------------------5.------------------------------------|
G|-----------------------------------------6.------------------------------------|
D|-----------------------------7-----------7.------------------------------------|
A|-----------------7-------------------------------------------------------------|
E|--3h-5-------------------------------------------------------------------------|

       B
e|-----------------------------------------7.------------------------------------|
B|-----------------------------------------7.------------------------------------|
G|-----------------------------------------8.------------------------------------|
D|-----------------------------9-----------9.------------------------------------|
A|-----------------9-------------------------------------------------------------|
E|--5h-7-------------------------------------------------------------------------|

       E
e|-----------------------------------------0.------------------------------------|
B|-----------------------------------------0.------------------------------------|
G|-----------------------------------------1.------------------------------------|
D|-----------------------------2-----------2.------------------------------------|
A|-----------------2-------------------------------------------------------------|
E|--2h-0-------------------------------------------------------------------------|

       B
e|-----------------------------------------7.------------------------------------|
B|-----------------------------------------7.------------------------------------|
G|-----------------------------------------8.------------------------------------|
D|-----------------------------9-----------9.------------------------------------|
A|-----------------9-------------------------------------------------------------|
E|--5h-7-------------------------------------------------------------------------|

             E  A  E       B          E           A  E       B  Bb
e|-----------0--0--0----|----------|--0--------0--0--0----|----------|
B|-----------0--2--0----|--4--4----|--0--------0--2--0----|--4--3----|
G|-----------1--2--1----|--4--4----|--1--------1--2--1----|--4--3----|
D|-----------2--2--2----|--4--4----|--2--------2--2--2----|--4--3----|
A|-----------2--0--2----|--2--2----|--2--------2--0--2----|--2--1----|
E|--0--------0-----0----|----------|--0--------0-----0----|----------|

       A
e|-----------------------------------------5.------------------------------------|
B|-----------------------------------------5.------------------------------------|
G|-----------------------------------------6.------------------------------------|
D|-----------------------------7-----------7.------------------------------------|
A|-----------------7-------------------------------------------------------------|
E|--3h-5-------------------------------------------------------------------------|

       B
e|-----------------------------------------7.------------------------------------|
B|-----------------------------------------7.------------------------------------|
G|-----------------------------------------8.------------------------------------|
D|-----------------------------9-----------9.------------------------------------|
A|-----------------9-------------------------------------------------------------|
E|--5h-7-------------------------------------------------------------------------|

       E
e|-----------------------------------------0.------------------------------------|
B|-----------------------------------------0.------------------------------------|
G|-----------------------------------------1.------------------------------------|
D|-----------------------------2-----------2.------------------------------------|
A|-----------------2-------------------------------------------------------------|
E|--2h-0-------------------------------------------------------------------------|

       E7
e|-----------------------------------------0.------------------------------------||
B|-----------------------------------------3.------------------------------------||
G|-----------------------------------------1.------------------------------------||
D|-----------------------------0-----------0.------------------------------------||
A|-----------------2-------------------------------------------------------------||
E|--2h-0-------------------------------------------------------------------------||

[Verse 2]
                                             20x
   A              E                                B
e|----------0.----0L---|--(0)------------------||----------------------|
B|----------2.----0L---|--(0)------------------||--4--4--4--4--4--4----|
G|o------2--2.----1L---|--(1)-----------------o||--4--4--4--4--4--4----|
D|o---2-----------2L---|--(2)--------2--------o||--4--4--4--4--4--4----|
A|-0--------------2L---|--(2)-----------4--2---||--2--2--2--2--2--2----|
E|----------------0L---|--(0)------------------||----------------------|


e|----------------------------------------------------------------------------|
B|--4-----------4-----------4-------------------------------------------------|
G|--4-----------4-----------4-------------------------------------------------|
D|--4-----------4-----------4--------------------------------2----------------|
A|--2-----------2-----------2-----------2--------4.-------------------4.------|
E|----------------------------------------------------------------------------|

[Chorus]
             E  A  E       B          E           A  E       B  Bb
e|-----------0--0--0----|----------|--0--------0--0--0----|----------|
B|-----------0--2--0----|--4--4----|--0--------0--2--0----|--4--3----|
G|-----------1--2--1----|--4--4----|--1--------1--2--1----|--4--3----|
D|-----------2--2--2----|--4--4----|--2--------2--2--2----|--4--3----|
A|-----------2--0--2----|--2--2----|--2--------2--0--2----|--2--1----|
E|--0--------0-----0----|----------|--0--------0-----0----|----------|

       A
e|-----------------------------------------5.------------------------------------|
B|-----------------------------------------5.------------------------------------|
G|-----------------------------------------6.------------------------------------|
D|-----------------------------7-----------7.------------------------------------|
A|-----------------7-------------------------------------------------------------|
E|--3h-5-------------------------------------------------------------------------|

       B
e|-----------------------------------------7.------------------------------------|
B|-----------------------------------------7.------------------------------------|
G|-----------------------------------------8.------------------------------------|
D|-----------------------------9-----------9.------------------------------------|
A|-----------------9-------------------------------------------------------------|
E|--5h-7-------------------------------------------------------------------------|

       E
e|-----------------------------------------0.------------------------------------|
B|-----------------------------------------0.------------------------------------|
G|-----------------------------------------1.------------------------------------|
D|-----------------------------2-----------2.------------------------------------|
A|-----------------2-------------------------------------------------------------|
E|--2h-0-------------------------------------------------------------------------|

       B
e|-----------------------------------------7.------------------------------------|
B|-----------------------------------------7.------------------------------------|
G|-----------------------------------------8.------------------------------------|
D|-----------------------------9-----------9.------------------------------------|
A|-----------------9-------------------------------------------------------------|
E|--5h-7-------------------------------------------------------------------------|

             E  A  E       B          E           A  E       B  Bb
e|-----------0--0--0----|----------|--0--------0--0--0----|----------|
B|-----------0--2--0----|--4--4----|--0--------0--2--0----|--4--3----|
G|-----------1--2--1----|--4--4----|--1--------1--2--1----|--4--3----|
D|-----------2--2--2----|--4--4----|--2--------2--2--2----|--4--3----|
A|-----------2--0--2----|--2--2----|--2--------2--0--2----|--2--1----|
E|--0--------0-----0----|----------|--0--------0-----0----|----------|

       A
e|-----------------------------------------5.------------------------------------|
B|-----------------------------------------5.------------------------------------|
G|-----------------------------------------6.------------------------------------|
D|-----------------------------7-----------7.------------------------------------|
A|-----------------7-------------------------------------------------------------|
E|--3h-5-------------------------------------------------------------------------|

       B
e|-----------------------------------------7.------------------------------------|
B|-----------------------------------------7.------------------------------------|
G|-----------------------------------------8.------------------------------------|
D|-----------------------------9-----------9.------------------------------------|
A|-----------------9-------------------------------------------------------------|
E|--5h-7-------------------------------------------------------------------------|

       E
e|-----------------------------------------0.------------------------------------|
B|-----------------------------------------0.------------------------------------|
G|-----------------------------------------1.------------------------------------|
D|-----------------------------2-----------2.------------------------------------|
A|-----------------2-------------------------------------------------------------|
E|--2h-0-------------------------------------------------------------------------|

       E7
e|-----------------------------------------0.------------------------------------||
B|-----------------------------------------3.------------------------------------||
G|-----------------------------------------1.------------------------------------||
D|-----------------------------0-----------0.------------------------------------||
A|-----------------2-------------------------------------------------------------||
E|--2h-0-------------------------------------------------------------------------||

            
            
Suggest correction
Creating personal tab
Creating personal tab
You can edit any tab online and save it as your Personal.

You can edit, replace or remove any tab part or add personal notes – all changes will be seen only by you.

Personal tabs can be accessed anytime from any device, even offline.
Learn more »
Give kudos to tab author, rate the tab!
1 2 3 4 5
comments
print report bad tab
guest
You may want to rate the tab now too:
select rating
Wanna post a correction for this tab? Suggest correction