Oops, an error
Loading. Please wait.

Snake Eyes tab

version 1
version 1

Whole song

118 views 27 this week
no commentswrite comment
1 2 3 4 5
2 more votes to show rating
add to favorites
×
Save as Personal and add changes to this tab that will be seen only by you. Learn more ›
×
You can save this tab as Personal to edit and correct it or add notes. All changes will be seen only by you. Learn more »
launch autoscroll
font size
0
reset
how to read this tab
guitar tuner
edit
Autoscroll
slow
fast
+/-
esc
set tempo
stop
I created this tab from this youtube video, https://www.youtube.com/watch?v=wOAHBjhFp1g. IF you're on the
mobile app then just look up the song and the artist and it's the video with the resonator guitar, if you
don't know what that is it's the guitar that looks like it's got speakers in it. I tried my best with the
lyric placement in relation to the guitar's part.




[Intro]

e|---------------------------------------|
B|---------------------------------------|
G|------------0--h2/4--2--0-----------0--|
D|-----0--h2-----------------2--0--2-----|
A|--0------------------------------------|
E|---------------------------------------|

e|---------------------------------------|
B|---------------------------------------|
G|------------0--h2/4--2--0--------------|
D|-----0--h2-----------------2--0--2-----|
A|--0------------------------------------|
E|------------------------------------b3-|

e|---------------------------------------|
B|---------------------------------------|
G|------------0--h2/4--2--0-----------0--|
D|-----0--h2-----------------2--0--2-----|
A|--0------------------------------------|
E|---------------------------------------|

e|---------------------------------------|
B|---------------------------------------|
G|------------0--h2/4--2--0-----------0--|
D|-----0--h2-----------------2--0--2-----|
A|--0------------------------------------|
E|---------------------------------------|


[Verse]
Watch your step lest you move on
e|---------------------------------------|
B|---------------------------------------|
G|------------0--h2/4--2--0-----------0--|
D|-----0--h2-----------------2--0--2-----|
A|--0------------------------------------|
E|---------------------------------------|

death
e|---------------------------------------|
B|---------------------------------------|
G|------------0--h2/4--2--0-----------0--|
D|-----0--h2-----------------2--0--2-----|
A|--0------------------------------------|
E|---------------------------------------|

It lay there coiled hidden underneath your
e|---------------------------------------|
B|---------------------------------------|
G|------------0--h2/4--2--0-----------0--|
D|-----0--h2-----------------2--0--2-----|
A|--0------------------------------------|
E|---------------------------------------|

 last breath                           Hold your
e|---------------------------------------|
B|---------------------------------------|
G|------------0--h2/4--2--0-----------0--|
D|-----0--h2-----------------2--0--2-----|
A|--0------------------------------------|
E|---------------------------------------|

tongues                             til I've gone
e|---------------------------------------|
B|---------------------------------------|
G|------------0--h2/4--2--0-----------0--|
D|-----0--h2-----------------2--0--2-----|
A|--0------------------------------------|
E|---------------------------------------|

e|---------------------------------------|
B|---------------------------------------|
G|------------0--h2/4--2--0-----------0--|
D|-----0--h2-----------------2--0--2-----|
A|--0------------------------------------|
E|---------------------------------------|

The beast that follows is close but will move
e|---------------------------------------|
B|---------------------------------------|
G|------------0--h2/4--2--0-----------0--|
D|-----0--h2-----------------2--0--2-----|
A|--0------------------------------------|
E|---------------------------------------|

on
e|---------------------------------------|
B|---------------------------------------|
G|------------0--h2/4--2--0-----------0--|
D|-----0--h2-----------------2--0--2-----|
A|--0------------------------------------|
E|---------------------------------------|


[Chorus]
Snake eyes              always on
e|---------------------------------------|
B|---------------------------------------|
G|------------0--h2/4--2--0-----------0--|
D|-----0--h2-----------------2--0--2-----|
A|--0------------------------------------|
E|---------------------------------------|

my tail
e|---------------------------------------|
B|---------------------------------------|
G|------------0--h2/4--2--0-----------0--|
D|-----0--h2-----------------2--0--2-----|
A|--0------------------------------------|
E|---------------------------------------|

Snake eyes             always up ahead
e|---------------------------------------|
B|---------------------------------------|
G|------------0--h2/4--2--0-----------0--|
D|-----0--h2-----------------2--0--2-----|
A|--0------------------------------------|
E|---------------------------------------|
                     oooh          Snake
e|---------------------------------------|
B|---------------------------------------|
G|------------0--h2/4--2--0-----------0--|
D|-----0--h2-----------------2--0--2-----|
A|--0------------------------------------|
E|---------------------------------------|

eyes                 hidden in the
e|---------------------------------------|
B|---------------------------------------|
G|------------0--h2/4--2--0-----------0--|
D|-----0--h2-----------------2--0--2-----|
A|--0------------------------------------|
E|---------------------------------------|

dark
e|---------------------------------------|
B|---------------------------------------|
G|------------0--h2/4--2--0-----------0--|
D|-----0--h2-----------------2--0--2-----|
A|--0------------------------------------|
E|---------------------------------------|

Snake eyes              better catch a
e|---------------------------------------|
B|---------------------------------------|
G|------------0--h2/4--2--0-----------0--|
D|-----0--h2-----------------2--0--2-----|
A|--0------------------------------------|
E|---------------------------------------|

spark
e|---------------------------------------|
B|---------------------------------------|
G|------------0--h2/4--2--0-----------0--|
D|-----0--h2-----------------2--0--2-----|
A|--0------------------------------------|
E|---------------------------------------|


[Verse 2]

e|---------------------------------------|
B|---------------------------------------|
G|-----------h2/4--2--0------------------|
D|-------h2------------------------------|
A|0--0-----------------------------------|
E|-----------------------b3--------------|

e|---------------------------------------|
B|---------------------------------------|
G|-----------h2--2--2--------------------|
D|-------h2------------------------------|
A|0--0-----------------------------------|
E|---------------------------------------|

e|---------------------------------------|
B|---------------------------------------|
G|-----------h2/4--2--0------------------|
D|-------h2------------------------------|
A|0--0-----------------------------------|
E|-----------------------b3--------------|
  
                  Blow out your
e|---------------------------------------|
B|---------------------------------------|
G|-----------h2--2--2--------------------|
D|-------h2------------------------------|
A|0--0-----------------------------------|
E|---------------------------------------|

candles         and face the
e|---------------------------------------|
B|---------------------------------------|
G|-----------h2/4--2--0------------------|
D|-------h2------------------------------|
A|0--0-----------------------------------|
E|-----------------------b3--------------| 

gloom
e|---------------------------------------|
B|---------------------------------------|
G|-----------h2--2--2--------------------|
D|-------h2------------------------------|
A|0--0-----------------------------------|
E|---------------------------------------|

Stand strong in the midst of peril and impending
e|---------------------------------------|
B|---------------------------------------|
G|-----------h2/4--2--0------------------|
D|-------h2------------------------------|
A|0--0-----------------------------------|
E|-----------------------b3--------------| 

doom                             Will you      
e|---------------------------------------|
B|---------------------------------------|
G|-----------h2--2--2--------------------|
D|-------h2------------------------------|
A|0--0-----------------------------------|
E|---------------------------------------|

fight                 or run and 
e|---------------------------------------|
B|---------------------------------------|
G|-----------h2/4--2--0------------------|
D|-------h2------------------------------|
A|0--0-----------------------------------|
E|-----------------------b3--------------| 

hide?
e|---------------------------------------|
B|---------------------------------------|
G|-----------h2--2--2--------------------|
D|-------h2------------------------------|
A|0--0-----------------------------------|
E|---------------------------------------|

When the storm winds blow will you have the strength to turn
e|---------------------------------------|
B|---------------------------------------|
G|-----------h2/4--2--0------------------|
D|-------h2------------------------------|
A|0--0-----------------------------------|
E|-----------------------b3--------------| 

the tide?
e|---------------------------------------|
B|---------------------------------------|
G|-----------h2--2--2--------------------|
D|-------h2------------------------------|
A|0--0-----------------------------------|
E|---------------------------------------|


[Chorus]
Snake eyes              always on my 
e|---------------------------------------|
B|---------------------------------------|
G|-----------h2/4--2--0------------------|
D|-------h2------------------------------|
A|0--0-----------------------------------|
E|-----------------------b3--------------|

tail
e|---------------------------------------|
B|---------------------------------------|
G|-----------h2--2--2--------------------|
D|-------h2------------------------------|
A|0--0-----------------------------------|
E|---------------------------------------|

Snake eyes            always up 
e|---------------------------------------|
B|---------------------------------------|
G|-----------h2/4--2--0------------------|
D|-------h2------------------------------|
A|0--0-----------------------------------|
E|-----------------------b3--------------|

ahead
e|---------------------------------------|
B|---------------------------------------|
G|------------0--h2/4--2--0-----------0--|
D|-----0--h2-----------------2--0--2-----|
A|--0------------------------------------|
E|---------------------------------------|

Snake eyes           hidden in the 
e|---------------------------------------|
B|---------------------------------------|
G|-----------h2/4--2--0------------------|
D|-------h2------------------------------|
A|0--0-----------------------------------|
E|-----------------------b3--------------|

dark
e|---------------------------------------|
B|---------------------------------------|
G|-----------h2--2--2--------------------|
D|-------h2------------------------------|
A|0--0-----------------------------------|
E|---------------------------------------|

Snake eyes          better catch a 
e|---------------------------------------|
B|---------------------------------------|
G|-----------h2/4--2--0------------------|
D|-------h2------------------------------|
A|0--0-----------------------------------|
E|-----------------------b3--------------|

spark
e|---------------------------------------|
B|---------------------------------------|
G|------------0--h2/4--2--0-----------0--|
D|-----0--h2-----------------2--0--2-----|
A|--0------------------------------------|
E|---------------------------------------|


[Outro]
Oooohhh...
e|---------------------------------------|
B|---------------------------------------|
G|-----------h2/4--2--0------------------|
D|-------h2------------------------------|
A|0--0-----------------------------------|
E|-----------------------b3--------------|

e|---------------------------------------|
B|---------------------------------------|
G|------------0--h2/4--2--0-----------0--|
D|-----0--h2-----------------2--0--2-----|
A|--0------------------------------------|
E|---------------------------------------|

e|---------------------------------------|
B|---------------------------------------|
G|-----------h2/4--2--0------------------|
D|-------h2------------------------------|
A|0--0-----------------------------------|
E|-----------------------b3--------------|

e|---------------------------------------|
B|---------------------------------------|
G|------------0--h2/4--2--0-----------0--|
D|-----0--h2-----------------2--0--2-----|
A|--0------------------------------------|
E|---------------------------------------|

Snake eyes             always on my
e|---------------------------------------|
B|---------------------------------------|
G|-----------h2/4--2--0------------------|
D|-------h2------------------------------|
A|0--0-----------------------------------|
E|-----------------------b3--------------|

tail
e|---------------------------------------|
B|---------------------------------------|
G|------------0--h2/4--2--0-----------0--|
D|-----0--h2-----------------2--0--2-----|
A|--0------------------------------------|
E|---------------------------------------|

Snake eyes             always up
e|---------------------------------------|
B|---------------------------------------|
G|-----------h2/4--2--0------------------|
D|-------h2------------------------------|
A|0--0-----------------------------------|
E|-----------------------b3--------------|

ahead
e|---------------------------------------|
B|---------------------------------------|
G|------------0--h2/4--2--0-----------0--|
D|-----0--h2-----------------2--0--2-----|
A|--0------------------------------------|
E|---------------------------------------|

Snake eyes             hidden in the
e|---------------------------------------|
B|---------------------------------------|
G|-----------h2/4--2--0------------------|
D|-------h2------------------------------|
A|0--0-----------------------------------|
E|-----------------------b3--------------|

dark
e|---------------------------------------|
B|---------------------------------------|
G|------------0--h2/4--2--0-----------0--|
D|-----0--h2-----------------2--0--2-----|
A|--0------------------------------------|
E|---------------------------------------|

Snake eyes            better catch a 
e|---------------------------------------|
B|---------------------------------------|
G|-----------h2/4--2--0------------------|
D|-------h2------------------------------|
A|0--0-----------------------------------|
E|-----------------------b3--------------|

spark
e|---------------------------------------|
B|---------------------------------------|
G|------------0--h2/4--2--0-----------0--|
D|-----0--h2-----------------2--0--2-----|
A|--0------------------------------------|
E|---------------------------------------|

e|---------------------------------------|
B|---------------------------------------|
G|-----------h2/4--2--0------------------|
D|-------h2------------------------------|
A|0--0-----------------------------------|
E|-----------------------b3--------------|

e|---------------------------------------|
B|---------------------------------------|
G|------------0--h2/4--2--0-----------0--|
D|-----0--h2-----------------2--0--2-----|
A|--0------------------------------------|
E|---------------------------------------|

e|---------------------------------------|
B|---------------------------------------|
G|-----------h2/4--2--0------------------|
D|-------h2------------------------------|
A|0--0-----------------------------------|
E|-----------------------b3--------------|

e|---------------------------------------|
B|---------------------------------------|
G|------------0--h2/4--2--0-----------0--|
D|-----0--h2-----------------2--0--2-----|
A|--0------------------------------------|
E|---------------------------------------|

[Starts to fade out]
e|---------------------------------------|
B|---------------------------------------|
G|-----------h2/4--2--0------------------|
D|-------h2------------------------------|
A|0--0-----------------------------------|
E|-----------------------b3--------------|

e|---------------------------------------|
B|---------------------------------------|
G|------------0--h2/4--2--0-----------0--|
D|-----0--h2-----------------2--0--2-----|
A|--0------------------------------------|
E|---------------------------------------|

e|---------------------------------------|
B|---------------------------------------|
G|-----------h2/4--2--0------------------|
D|-------h2------------------------------|
A|0--0-----------------------------------|
E|-----------------------b3--------------|

[Do this a little slower]
e|---------------------------------------|
B|---------------------------------------|
G|------------0--h2/4--2--0-----------0--|
D|-----0--h2-----------------2--0--2-----|
A|--0------------------------------------|
E|---------------------------------------|

************************************
| h   Hammer-on
| b   Bend
| /   Slide up
************************************
Suggest correction
Creating personal tab
Creating personal tab
You can edit any tab online and save it as your Personal.

You can edit, replace or remove any tab part or add personal notes – all changes will be seen only by you.

Personal tabs can be accessed anytime from any device, even offline.
Learn more »
Give kudos to tab author, rate the tab!
1 2 3 4 5
comments
print report bad tab
guest
You may want to rate the tab now too:
select rating
Wanna post a correction for this tab? Suggest correction