Oops, an error
Loading. Please wait.

The Thief And The Moon tab

2,455 views 51 this week
no commentswrite comment
1 2 3 4 5
1 last vote to show rating
add to favorites
×
Save as Personal and add changes to this tab that will be seen only by you. Learn more ›
×
You can save this tab as Personal to edit and correct it or add notes. All changes will be seen only by you. Learn more »
launch autoscroll
font size
0
reset
how to read this tab
guitar tuner
edit
Autoscroll
slow
fast
+/-
esc
set tempo
stop
Author
About this tab version
The ending may not be accurate but I think it sounds good. Was this info helpful? Yes No
[Intro]x2
   Em                          G
e|--------------------------------------------------------|
B|--------------------------------------------------------|
G|--------0-----------0--------------0-----------0--------|
D|------2---2-------2---2----------0---0-------0---0------|
A|----2-------2---2-------2------2-------2---2-------2----|
E|--0-----------0-----------0--3-----------3-----------3--|
   B?                          Em
e|--------------------------------------------------------|
B|--------------------------------------------------------|
G|--------0-----------0--------------0-----------0--------|
D|------1---1-------1---1----------2---2-------2---2------|
A|----2-------2---2-------2------2-------2---2-------2----|
E|--2-----------2-----------2--0-----------0-----------0--|


[Verse]
   Em                          Em                 Am
   Said the thief              to the moon "I'll extinguish
e|-------------------------------------------------------------------|
B|-----------------------------------------------------------1-------|
G|--------0-----------0-----------0-----------0------------2---2-----|
D|------2---2-------2---2-------2---2-------2---2--------2-------2---|
A|----2-------2---2-------2---2-------2---2-------2----0-----------3-|
E|--0-----------0-----------0-----------0-----------0----------------|

   C          Em                                 Am     C
   your light soon.                  I'll put an end to all the
e|----------------------------------------------------------------|
B|----1----------------------------------------1------------1-----|
G|--0---0-----------0-----------0------------2---2--------0---0---|
D|2-------2-------2---2-------2---2--------2-------2----2-------2-|
A|--------------2-------2---2-------2----0------------3-----------|
E|------------0-----------0-----------0---------------------------|
 
   G                           B?                       Em
   light that you shine on the world in its darkened    state."
e|--------------------------------------------------------------------|
B|--------------------------------------------------------------------|
G|-------0-----------0------------0-----------0------------0----------|
D|-----0---0-------0---0--------1---1-------1---1--------2---2-------2|
A|---2-------2---2-------2----2-------2---2-------2----2-------2---2--|
E|-3-----------3------------2-----------2------------0-----------0----|

                                    Em                   Em 
                           Said the Moon          to the Thief      "You know
e|-------------------------------------------------------------------------------|
B|-------------------------------------------------------------------------------|
G|-0-----------0-----------0-----------0-----------0-----------0-----------0-----|
D|---2-------2---2-------2---2-------2---2-------2---2-------2---2-------2---2---|
A|-----2---2-------2---2-------2---2-------2---2-------2---2-------2---2-------2-|
E|-------0-----------0-----------0-----------0-----------0-----------0-----------|

   Am          C           Em                      Am         C
   not of      what you    seek.            you'll doom the world      to 
e|-------------------------------------------------------------------------|
B|-------1-----------1-----------------------------------1-----------1-----|
G|-----2---2-------0---0---------0-----------0---------2---2-------0---0---|
D|---2-------2---2-------2-----2---2-------2---2-----2-------2---2-------2-|
A|-0-----------3-------------2-------2---2-------2-0-----------3-----------|
E|-------------------------0-----------0-----------------------------------|

  G                        B?                                Em
  wander the night with no light to guide the paths that men seek."               
e|-------------------------------------------------------------------------------------|
B|-------------------------------------------------------------------------------------|
G|-------0-----------0-----------0-----------0-----------0-----------0-----------0-----|
D|-----0---0-------0---0-------1---1-------1---1-------2---2-------2---2-------2---2---|
A|---2-------2---2-------2---2-------2---2-------2---2-------2---2-------2---2-------2-|
E|-3-----------3-----------2-----------2-----------0-----------0-----------0-----------|


[Chorus]

           Am         Am          C             Am            Em         Em          Em
  "Oh, but all                    wealth in the world will be mine,
e|--------------------------------------------------------------------------------------------|
B|--------------1-----------1-----------1-----------1-----------------------------------------|
G|------------2---2-------2---2-------0---0-------2---2---------0-----------0-----------0-----|
D|----------2-------2---2-------2---2-------2---2-------2-----2---2-------2---2-------2---2---|
A|--------0-----------0-----------3-----------0-------------2-------2---2-------2---2-------2-|
E|-0h2h3--------------------------------------------------0-----------0-----------0-----------|

            Am        Am          C           Am            Em           Em          Em
  without a means of              defense     for all those blind.
e|--------------------------------------------------------------------------------------------|
B|--------------1-----------1-----------1-----------1-----------------------------------------|
G|------------2---2-------2---2-------0---0-------2---2---------0-----------0-----------0-----|
D|----------2-------2---2-------2---2-------2---2-------2-----2---2-------2---2-------2---2---|
A|--------0-----------0-----------3-----------0-------------2-------2---2-------2---2-------2-|
E|-0h2h3--------------------------------------------------0-----------0-----------0-----------|

           Am         Am         C             Am         Em          Em         Em
   My very existence        is a way to        obtain     wealth,       
e|--------------------------------------------------------------------------------------------|
B|--------------1-----------1-----------1-----------1-----------------------------------------|
G|------------2---2-------2---2-------0---0-------2---2---------0-----------0-----------0-----|
D|----------2-------2---2-------2---2-------2---2-------2-----2---2-------2---2-------2---2---|
A|--------0-----------0-----------3-----------0-------------2-------2---2-------2---2-------2-|
E|-0h2h3--------------------------------------------------0-----------0-----------0-----------|

   Em         B?           B?          B?         B?          Em
   For the    thief's only loyalty in life is to the Devil himself."
e|---------------------------------------------------------------------------|
B|---------------------------------------------------------------------------|
G|-------0-----------0-----------0-----------0-----------0-----------0-------|
D|-----2---2-------1---1-------1---1-------1---1-------1---1-------2---2-----|
A|---2-------2---2-------2---2-------2---2-------2---2-------2---2-------2---|
E|-0-----------2-----------2-----------2-----------2-----------0-------------|


[Instrumental]x2

   Em                          G
e|--------------------------------------------------------|
B|--------------------------------------------------------|
G|--------0-----------0--------------0-----------0--------|
D|------2---2-------2---2----------0---0-------0---0------|
A|----2-------2---2-------2------2-------2---2-------2----|
E|--0-----------0-----------0--3-----------3-----------3--|
   B?                          Em
e|--------------------------------------------------------|
B|--------------------------------------------------------|
G|--------0-----------0--------------0-----------0--------|
D|------1---1-------1---1----------2---2-------2---2------|
A|----2-------2---2-------2------2-------2---2-------2----|
E|--2-----------2-----------2--0-----------0-----------0--|


[Chorus]
 
                   Am         Am           D          Am           Em         Em          Em
   "The Earth will rise up and             devour     all that you are.
e|----------------------------------------2-----------------------------------------------------|
B|--------------1-----------1-----------1---1---------1-----------------------------------------|
G|------------2---2-------2---2-------2-------2-----2---2---------0-----------0-----------0-----|
D|----------2-------2---2-------2--0--------------2-------2-----2---2-------2---2-------2---2---|
A|--------0-----------0-------------------------0-------------2-------2---2-------2---2-------2-|
E|-0h2h3----------------------------------------------------0-----------0-----------0-----------|

                  Am         Am           D           Am           Em         Em          Em
   The skies will call forth              thunderous storms from  afar.
e|----------------------------------------2-----------------------------------------------------|
B|--------------1-----------1-----------1---1---------1-----------------------------------------|
G|------------2---2-------2---2-------2-------2-----2---2---------0-----------0-----------0-----|
D|----------2-------2---2-------2--0--------------2-------2-----2---2-------2---2-------2---2---|
A|--------0-----------0-------------------------0-------------2-------2---2-------2---2-------2-|
E|-0h2h3----------------------------------------------------0-----------0-----------0-----------|

                  Am         Am           D           Am            Em         Em          Em
   When you're dead, they'll be no        grave to    remember your name.
e|----------------------------------------2-----------------------------------------------------|
B|--------------1-----------1-----------1---1---------1-----------------------------------------|
G|------------2---2-------2---2-------2-------2-----2---2---------0-----------0-----------0-----|
D|----------2-------2---2-------2--0--------------2-------2-----2---2-------2---2-------2---2---|
A|--------0-----------0-------------------------0-------------2-------2---2-------2---2-------2-|
E|-0h2h3----------------------------------------------------0-----------0-----------0-----------|

   Em         B?           B?          B?         B?          Em
   For your  greed brings your end and there's no one but yourself to blame.
e|---------------------------------------------------------------------------|
B|---------------------------------------------------------------------------|
G|-------0-----------0-----------0-----------0-----------0-----------0-------|
D|-----2---2-------1---1-------1---1-------1---1-------1---1-------2---2-----|
A|---2-------2---2-------2---2-------2---2-------2---2-------2---2-------2---|
E|-0-----------2-----------2-----------2-----------2-----------0-------------|

[Outro] (\ /\/ \)

   Em               G                 B?                   Em               
e|---------------------------------------------------------------------------|
B|---------------------------------------------------------------------------|
G|---------------------------------------------------------------------------|
D|---------------------------------------------------------------------------|
A|---------------------------------------------------------------------------|
E|---------------------------------------------------------------------------|
        Am               Em                B?                   Em
e|---------------------------------------------------------------------------|
B|---------------------------------------------------------------------------|
G|---------------------------------------------------------------------------|
D|---------------------------------------------------------------------------|
A|---------------------------------------------------------------------------|
E|--0h2h3-----------3p2p0------------3p0h2-------------2h3p0-----------------|


************************************

| h   Hammer-on
| p   Pull-off
| /   upstroke
| \   downstroke

************************************

            
            
Suggest correction
Creating personal tab
Creating personal tab
You can edit any tab online and save it as your Personal.

You can edit, replace or remove any tab part or add personal notes – all changes will be seen only by you.

Personal tabs can be accessed anytime from any device, even offline.
Learn more »
Give kudos to tab author, rate the tab!
1 2 3 4 5
comments
print report bad tab
guest
You may want to rate the tab now too:
select rating
Wanna post a correction for this tab? Suggest correction