Oops, an error
Loading. Please wait.

Through The Valley intro tab

version 1
version 1

Intro

  • Intro to the song from "I walk..." to "when they come...".

Whole song

Interactive

2,146 views 30 this week
no commentswrite comment
1 2 3 4 5
x 4
add to favorites
×
Save as Personal and add changes to this tab that will be seen only by you. Learn more ›
×
You can save this tab as Personal to edit and correct it or add notes. All changes will be seen only by you. Learn more »
launch autoscroll
font size
0
reset
how to read this tab
guitar tuner
edit
Autoscroll
slow
fast
+/-
esc
set tempo
stop
About this tab version
Intro to the song from "I walk..." to "when they come...". Was this info helpful? Yes No
The tab to the first part of the song. When reaching the lyrics of (surely goodness and mercy...) you switch 
to the chords.

Capo on 4th fret

[Intro]
    [Em]              [Am]             [Em]              [B7]
e|-----------------|-----------------|------------------|--------------------|
B|-----0-------0---|----1--------1---|----0---------0---|----0---------0-----|
G|-------0-------0-|------2--------2-|------0---------0-|-------2---------2--|
D|----2---2---2---2|--2----2---2----2|--2----2---2-----2|--1------1---1----1-|
A|-----------------|-----------------|------------------|--------------------|
E|--0-------0------|0--------0-------|0--------0--------|0----------0--------|
    [Em]              [Am]               [Em]    [B7]     [Em]    [Em]
e|----------(0)------|-----------------|----------------------------0--------|
B|------0--------0---|----1--------1---|----0--------0--------0-----0--------|
G|--------0--------0-|------2--------2-|------0--------2--------0---0--------|
D|----2----2---2----2|--2----2---2----2|--2----2---1----1---2----2--2--------|
A|-------------------|-----------------|----------------------------2--------|
E|--0--------0-------|0--------0-------|0--------0--------0---------0--------|

Hope you enjoy~

***********************************

| h   Hammer-on
| x   Dead note
| /   Slide-up
| pb  Pre-bend
| ~   Vibrato
| .   Staccato

***********************************


***********************************
| /   Slide up
| \   Slide down
| h   Hummer-on
| p   Pull-off
| ~   Vibrato
| +   Harmonic
| x   Dead note
| b   Bend
| pb  Pre-bend
| br  Bend release
| pbr Pre-bend release
| brb Bend release bend
***********************************

            
            
Suggest correction
Creating personal tab
Creating personal tab
You can edit any tab online and save it as your Personal.

You can edit, replace or remove any tab part or add personal notes – all changes will be seen only by you.

Personal tabs can be accessed anytime from any device, even offline.
Learn more »
comments
print report bad tab
guest
You may want to rate the tab now too:
select rating
Wanna post a correction for this tab? Suggest correction