Oops, an error
Loading. Please wait.

Through The Valley tab

version 1
version 1

Whole song

Interactive

56,020 views 1,056 this week
5 commentsread comments
1 2 3 4 5
x 32
add to favorites
×
Save as Personal and add changes to this tab that will be seen only by you. Learn more ›
×
You can save this tab as Personal to edit and correct it or add notes. All changes will be seen only by you. Learn more »
launch autoscroll
font size
0
reset
how to read this tab
guitar tuner
edit
Autoscroll
slow
fast
+/-
esc
set tempo
stop
[Intro]

    Em                            Am
e|-0----0----0--|-0----0----0--|-0----0----0--|-0----0----0--|
B|---0----0----0|---0----0----0|---1----1----1|---1----1----1|
G|----0----0----|----0----0----|----2----2----|----2----2----|
D|-----------2--|-----------2--|------2-------|------2-------|
A|------2-------|------2-------|-0---------0--|-0---------0--|
E|-0------------|-0------------|--------------|--------------|

    Em                            B7 
e|-0----0----0--|-0----0----0--|-0----0----0--|-0----0---0-0-0|
B|---0----0----0|---0----0----0|---0----0----0|---0----0-0-0-0|
G|----0----0----|----0----0----|----2----2-2--|----2-----2-2-2|
D|-----------2--|-----------2--|------1-------|------1-----1-1|
A|------2-------|------2-------|-2------------|-2----------2-2|
E|-0------------|-0------------|--------------|---------------|

    Em                            Am
e|-0----0----0--|-0----0----0--|-0----0----0--|-0----0----0--|
B|---0----0----0|---0----0----0|---1----1----1|---1----1----1|
G|----0----0----|----0----0----|----2----2----|----2----2----|
D|-----------2--|-----------2--|------2-------|------2-------|
A|------2-------|------2-------|-0---------0--|-0---------0--|
E|-0------------|-0------------|--------------|--------------|

    Em               B7                         Em                         I          
e|-0----0----0--|----0-----0----0--0---0------|-0----0----0--|-0----0----0--|
B|---0----0----0|----0-----0----0--0---0------|---0----0----0|---0----0----0|
G|----0----0----|----2-PM--2-------2---2------|----0----0----|----0----0----|
D|-----------2--|----1-----1-------1---1------|-----------2--|-----------2--|
A|------2-------|-2--2-----2-------2---2------|------2-------|------2-------|
E|-0------------|-----------------------------|-0------------|-0------------|


[Verse 1]

    Em                            Am
   walk,  ....   valley ....       shadow....death
e|-0----0----0--|-0----0----0--|-0----0----0--|-0----0----0--|
B|---0----0----0|---0----0----0|---1----1----1|---1----1----1|
G|----0----0----|----0----0----|----2----2----|----2----2----|
D|-----------2--|-----------2--|------2-------|------2-------|
A|------2-------|------2-------|-0---------0--|-0---------0--|
E|-0------------|-0------------|--------------|--------------|

    Em                            B7 
   I fear  no  evil....          blind....   all...       in my
e|-0----0----0--|-0----0----0--|-0----0----0--|-0----0----0--|
B|---0----0----0|---0----0----0|---0----0----0|---0----0----0|
G|----0----0----|----0----0----|----2----2-2--|----2----2-2--|
D|-----------2--|-----------2--|------1-------|------1-------|
A|------2-------|------2-------|-2------------|-2------------|
E|-0------------|-0------------|--------------|--------------|

    Em                            Am
   mind   ....   gun ....        me                 because I
e|-0----0----0--|-0----0----0--|-0----0----0--|-0----0----0--|
B|---0----0----0|---0----0----0|---1----1----1|---1----1----1|
G|----0----0----|----0----0----|----2----2----|----2----2----|
D|-----------2--|-----------2--|------2-------|------2-------|
A|------2-------|------2-------|-0---------0--|-0---------0--|
E|-0------------|-0------------|--------------|--------------|
 
    Em               B7          Em                         I  
   know      enemies          come
e|-0----0----0--|-0----0----0--|-0----0----0--|-0----0----0--|
B|---0----0----0|---0----0----0|---0----0----0|---0----0----0|
G|----0----0----|----2----2-2--|----0----0----|----0----0----|
D|-----------2--|------1-------|-----------2--|-----------2--|
A|------2-------|-2------------|------2-------|------2-------|
E|-0------------|--------------|-0------------|-0------------|

Repeat for Verse 2

  Em  Em7  Am  G
e|-0-|-0-|-0-|-3-|-1-|-2-|
B|-0-|-0-|-1-|-0-|-2-|-0-|
G|-0-|-0-|-2-|-0-|-3-|-2-|
D|-2-|-0-|-2-|-0-|-3-|-1-|
A|-2-|-2-|-0-|-2-|-1-|-2-|
E|-0-|-0-|-x-|-3-|-1-|-x-|


[Chorus]

       Em          Em7                 Am
Well I came upon a man at the top of a hill,
Em               G             Bm/F#  B7 
call himself the savior of the human race.
        Em                 Em7           Am
Said he come to save the world from destruction and pain,
           Em *                    Bm *
but I said how can you save the world from itself.


[Bridge]

Em F#m G Bm/F# Am
Em    Em7      B7 
Em             Am
Am             Em

[Chorus 2]

         Em           F#m    G   Bm/F#  Am                            
'Cause I walk through the valley of the shadow of death.
       Em     Em7             B7 
and I fear no evil 'cause I'm blind.
   Em             Em7                    Am 
I walk beside the still waters and they restore my soul,
      Em          B7               Em  
but I know when I die my soul is damned.


************************************

| *   Strum Once
| PM  Palm mute

************************************

            
            
Suggest correction
Creating personal tab
Creating personal tab
You can edit any tab online and save it as your Personal.

You can edit, replace or remove any tab part or add personal notes – all changes will be seen only by you.

Personal tabs can be accessed anytime from any device, even offline.
Learn more »
comments
print report bad tab
5 comments total. Showing first comments.
+4 reply
Sanjao 10 Dec 10, 2016 09:21 PM

Can't thank you enough

+3 reply
seri.nofx 10 Jan 16, 2017 01:06 PM

Em Am
e|-0----0----0--|-0----0----0--|-0----0----0--|-0----0----0--|
B|---0----0----0|---0----0----0|---1----1----1|---1----1----1|
G|----0----0----|----0----0----|----2----2----|----1----2----|
D|-----------2--|-----------2--|------2-------|------2-------|
A|------2-------|------2-------|-0---------0--|-0---------0--|
E|-0------------|-0------------|--------------|--------------|

it should be this

Em Am
e|-0----0----0--|-0----0----0--|-0----0----0--|-0----0----0--|
B|---0----0----0|---0----0----0|---1----1----1|---1----1----1|
G|----0----0----|----0----0----|----2----2----|----2----2----|
D|-----------2--|-----------2--|------2-------|------2-------|
A|------2-------|------2-------|-0---------0--|-0---------0--|
E|-0------------|-0------------|--------------|--------------|

am i right?

+1 reply
_one 36 Aug 12, 2017 07:12 AM

well, The Last of us II trailer brought me here

guest
You may want to rate the tab now too:
select rating
Wanna post a correction for this tab? Suggest correction