Oops, an error
Loading. Please wait.

Epilogue For Lisa tab

version 1
version 1

Whole song

Interactive

7,122 views 3 this week
3 commentsread comments
1 2 3 4 5
x 3
add to favorites
×
Save as Personal and add changes to this tab that will be seen only by you. Learn more ›
×
You can save this tab as Personal to edit and correct it or add notes. All changes will be seen only by you. Learn more »
launch autoscroll
font size
0
reset
how to read this tab
guitar tuner
edit
Autoscroll
slow
fast
+/-
esc
set tempo
stop
Difficulty
intermediate
Epilogue for Lisa, written and transcribed by Roger Sherrer

This is my first tab ever, so sorry for the rather crappy quality, for 
email me at pancake_nipple@Hotmail.com

E |-----------------------------------------------------|
B |-----------------------------9~----------------------|
G |-------------------6---------------------------------|
D |-----------8-----------------------------------------|
A |---9-------------------------------------------------|
E |-----------------------------------------------------|


E |-----------------------------9---9----9----6----------|
B |---11----11-----7---7---------------------------------|
G |--------------------------------------------------10--|
D |------------------------------------------------------|
A |------------------------------------------------------|
E |------------------------------------------------------|


E |--------------------------------------------------------|
B |------------------9/11/9----7-----9b-9---7---7----------|
G |--8--8------8-------------------------------------------|
D |--------------------------------------------------------|
A |--------------------------------------------------------|
E |--------------------------------------------------------|


E |----------11~-----11-----9---9-------------------------|
B |---7------------------------------------7----6---------|
G |-------------------------------------------------------|
D |-------------------------------------------------------|
A |-------------------------------------------------------|
E |-------------------------------------------------------|


E |--------------------------------------6----------------|
B |---------------------7~------------------------7-------|
G |--------------6-----------------6---------6------------|
D |---------8---------------------------------------------|
A |--4/9--------------------------------------------------|
E |-------------------------------------------------------|


E |--------------------------------------------------------|
B |--------------------------------------------------------|
G |--6--------------------------------------------------8--|
D |----------6-------3-----------------------------8-------|
A |-----------------------4-------------------6------------|
E |---------------------------4--------4/6-----------------|

E |-------------------------------------------------------|
B |-----------------------------------------------9/11----|
G |----------------------------6/8----8--6--6-------------|
D |---7/6---4---------------------------------------------|
A |---------------6--6--6---------------------------------|
E |-------------------------------------------------------|


E |-----------------------------------------------------------|
B |---11--11--9--9-----------------------9~----11~------------|
G |-------------------------------------6---------------------|
D |--------------------------------8--------------------------|
A |--------------------------9--------------------------------|
E |-----------------------------------------------------------|

E |-------------------9~-------9-----6-------------------|
B |-11---7---7----------------------------6--------------|
G |-----------------------------------------------8--8h--|
D |------------------------------------------------------|
A |------------------------------------------------------|
E |------------------------------------------------------|


E |--------------------9----11---------------------------|
B |---------/11--------------------9b-9/7----------------|
G |--8------------------------------------------8---8----|
D |------------------------------------------------------|
A |------------------------------------------------------|
E |------------------------------------------------------|


E |--9----9/11---11---9---9------------------------------|
B |----------------------------------7--6--6~------------|
G |------------------------------------------------------|
D |------------------------------------------------------|
A |------------------------------------------------------|
E |------------------------------------------------------|


E |-----------------------------------6-------------------|
B |------------------------7-------------------7----------|
G |------------------6----------6-------6-----------------|
D |-------------8-----------------------------------6-----|
A |--4----9-----------------------------------------------|
E |-------------------------------------------------------|


E |------------------------------------------------------|
B |------------------------------------------------------|
G |---------------------------------------------8--------|
D |-----6/3----3------------------------8----------------|
A |-----------------4----------------6-------------------|
E |---------------------4-----4/6------------------------|


E |---------------------------------------------------|
B |-------------------------------------------9/11----|
G |------------------------/8----8~--6--6-------------|
D |----7/6h4------------------------------------------|
A |---------------6--6--------------------------------|
E |---------------------------------------------------|


E |--------------------------------14---------16------13~-----|
B |----11h9---9-----------------------------------------------|
G |------------------11----11---------11----------------------|
D |-----------------------------------------------------------|
A |-----------------------------------------------------------|
E |-----------------------------------------------------------|


E |-----14-h-13----------------------11------------7--------------|
B |------------------14---------------------------9---------11~---|
G |-------------------------11---11--------8----------------------|
D |---------------------------------------------------------------|
A |---------------------------------------------------------------|
E |---------------------------------------------------------------|


E |-------------------------------------------6~---------------|
B |--9---7---9b9--7-------------------------------9------------|
G |----------------------8---8~---------8----------------------|
D |------------------------------------------------------------|
A |------------------------------------------------------------|
E |------------------------------------------------------------|


E |------------------------------------------------------------------14---|
B |---6------6---------------------------------------11--14---------------|
G |-------------------------------------------11--------------------------|
D |-----------------------------------11----------------------------------|
A |-----------------------------------------------------------------------|
E |-----------------------------------------------------------------------|


E |----------------------------14----13-------------------|
B |---12---12--------------------------------14-----------|
G |-------------------11-----------------------------15---|
D |-------------------------------------------------------|
A |-------------------------------------------------------|
E |-------------------------------------------------------|


E |-------------------------18~---18----16---------|
B |---13---13---13-----------------------------19--|
G |------------------------------------------------|
D |------------------------------------------------|
A |------------------------------------------------|
E |------------------------------------------------|


E |----16~----------------14-----14-----13---------13---|
B |------------16---16----------------------------------|
G |-----------------------------------------------------|
D |-----------------------------------------------------|
A |-----------------------------------------------------|
E |-----------------------------------------------------|

E |--------------2-------------------------------------------------|
B |-------------------6------------------------4-------------------|
G |---6~------------------6-----------------------4----------------|
D |-------------------------------6------4--------------4----------|
A |------------------------------------------------------------6---|
E |----------------------------------------------------------------|

E |------------------------------------------------------------|
B |------------------------------------------------------------|
G |--------3----------------------------------------------3----|
D |---4-----------4--------4--------------------4--------------|
A |--------------------4-------------------------------4-------|
E |------------------------------------------------------------|


E |-----------------------------------------14--------------|
B |---------------------------------14----------------------|
G |-----------------------15--------------------------------|
D |-----------------18--------------------------------------|
A |-----------16--------------------------------------------|
E |-----14--------------------------------------------------|

E |--18/21~------------------------------------------|
B |--------------------------------------------------|
G |--------------------------------------------------|
D |--------------------------------------------------|
A |--------------------------------------------------|
E |--------------------------------------------------|

            
            
Suggest correction
Creating personal tab
Creating personal tab
You can edit any tab online and save it as your Personal.

You can edit, replace or remove any tab part or add personal notes – all changes will be seen only by you.

Personal tabs can be accessed anytime from any device, even offline.
Learn more »
Give kudos to tab author, rate the tab!
1 2 3 4 5
comments
print report bad tab
3 comments total.
0 reply
Monoxide21 10 Jun 30, 2007 05:36 PM

I tabbed this if anyone is interested

0 reply
Thrasher_09 40 Oct 12, 2008 03:00 PM

Good tab but I think that it is advanced.

0 reply
Nacho Cheese! 71 Feb 01, 2009 12:30 PM

I don't know how this would be considered advanced.

guest
Wanna post a correction for this tab? Suggest correction