Oops, an error
Loading. Please wait.

Defender Of The Castle bass

2,082 views 1 this week
1 commentread comment
1 2 3 4 5
2 more votes to show rating
add to favorites
×
Save as Personal and add changes to this tab that will be seen only by you. Learn more ›
×
You can save this tab as Personal to edit and correct it or add notes. All changes will be seen only by you. Learn more »
launch autoscroll
font size
0
reset
guitar tuner
edit
Autoscroll
slow
fast
+/-
esc
set tempo
stop
Author
This is a great tune from a great game. Very simple but catchy and fun to play. It's my 
tab ever, but I think it's right.

composed by: Shawn Lee (Rockstar Games)
song title: "Defender of the Castle"
from: "Bully (Canis Canem Edit)" original videogame soundtrack
tabbed by: Tomo

Verse (play 2×)
G|----------------------------------------------------------------|
D|--------5-55-555--------7-77-75---------5-55-555----------------|
A|7-77-777--------5-55-555--------7-77-777--------5-55-555--------|
E|--------------------------------------------------------5-55-50-|

G|----------------------------------------------------------------|
D|--------5-55-555--------7-77-75---------5-55-555----------------|
A|7-77-777--------5-55-555--------7-77-777--------7-77-7777-77-777|
E|----------------------------------------------------------------|

Chours
G|----------------------------------------------------------------|
D|----------------------------------------------------------------|
A|5555555577777777----------------55555555777777773333333333333333|
E|----------------7777777777777777--------------------------------|

G|----------------------------------------------------------------|
D|----------------------------------------------------------------|
A|5555555577777777----------------55555555555555557777777798989-5-|
E|----------------7777777777777777--------------------------------|

Verse (play 2×)

Outro
G|------------------------------------------------------------------|
D|------------------------------------------------------------------|
A|5555555577777777----------------555555557777777733333333333333332~|
E|----------------7777777777777777----------------------------------|

            
            
Suggest correction
Creating personal tab
Creating personal tab
You can edit any tab online and save it as your Personal.

You can edit, replace or remove any tab part or add personal notes – all changes will be seen only by you.

Personal tabs can be accessed anytime from any device, even offline.
Learn more »
Give kudos to tab author, rate the tab!
1 2 3 4 5
comments
print report bad tab
1 comment total.
0 reply
RockinSk8in 10 Dec 28, 2008 12:24 PM

I think its a 3 instead of an O on the final bit of the verse. but otherwise Very helpfull.

guest
You may want to rate the tab now too:
select rating
Wanna post a correction for this tab? Suggest correction