Oops, an error
Loading. Please wait.

Here I Am Tab

2,660 views 1 this week
no commentswrite comment
1 2 3 4 5
3 more votes to show rating
add to favorites
launch autoscroll
font size
how to read this tab
guitar tuner
set tempo
Help us to improve Ultimate-Guitar.com Take our survey!
Hey everyone this is my first tab, and i wanted to see how there some were other ways to 
this song, but none of them sound good. So im postin the way I play, and i think it 
the best. So enjoy!

You guys can figure out the strumming just by listening to the song

E ---------------------------------|
B ---------------------------------|
G --9----8----6----4----2----4-----|
D --9----9----6----4----2----4-----|
A --7----7----4----2---------2-----|
E ---------------------------------|

Then sometimes he will play the last two notes a couple times which basically looks like this..

E -----------------------------------------------------|
B -----------------------------------------------------|
G --9----8----6----4----2----4----2----4----2----4-----|
D --9----9----6----4----2----4----2----4----2----4-----|
A --7----7----4----2---------2---------2---------2-----|
E -----------------------------------------------------|

You just plays those over and over again, and thats the song. And just listen to the 
youll know when you need to repeat the last two notes and stuff

God Bless
Suggest correction
Give kudos to tab author, rate the tab!
1 2 3 4 5
print report bad tab
You may want to rate the tab now too:
select rating
Wanna post a correction for this tab? Suggest correction