Oops, an error
Loading. Please wait.

Rise Chords

version 1
version 1
43,224 views 21 this week
3 commentsread comments
1 2 3 4 5
worth learning
x 4
add to favorites
launch autoscroll
font size
0
reset
transpose
0
reset
simplify chords
- display chords -
guitar tuner
Tab Pro tools
  • play this tab
  • loop segment
  • change instrument
  • show fretboard
  • metronome
Autoscroll
slow
fast
+/-
esc
set tempo
stop
Contributor
Difficulty
novice
Shawn Mcdonald- Rise

There weren't any tabs/chords anywhere that I could find so I just watched him 
play on youtube. Not sure what he does exactly for the "A7sus4" but this sounds sort of close.
Great song 

Capo 3

Pattern is Asus4, G6, A7sus4, Asus4, Asus4/E  and repeat


Asus4    G6     A7sus4 (I think)    Asus4/E
-0-------0-------0-------------------0----|
-3-------3-------5-------------------3----|
-2-------0-------0-------------------0----|
-0-------0-------0-------------------2----|
-0-------2-------5?------------------0----|
-0-------3-------5-------------------0----|
comments
print report bad tab
3 comments total.
0 reply
twinmacs wrote on June 22 2011, 12:37 am

Tuning is DADGA.

The version of the chords I play (set to the tuning above)

Asus4 G6 A7Sus4 (I think) Asus4/E
-0-------0-------0-------------------0----|
-0-------0-------0-------------------0----|
-2-------0-------0-------------------0----|
-0-------0-------0-----------------0h2----|
-0-------2-------5?------------------0----|
-0-------2-------5-------------------0----|

0 reply
twinmacs wrote on June 22 2011, 12:39 am

Excuse me, sorry. The tuning is DADGAD.

0 reply
c_harrison wrote on November 18 2011, 04:03 pm

OK, here's the correct tab: Drop-D tuning (DADGBE)

Dadd9 Em G6 A7add9
--0-------0-------0-------------------0----|
--3-------0-------0-------------------0----|
--2-------0-------0-------------------0----|
--0-------2-------0-------------------2----|
--0-------2-------5-------------------0----|
--0-------2-------5-------------------X----|

The key to spotting someone playing in the drop-D tuning
is to watch for the G being played on the fifth fret. drop-D tuning usually implied a song in the key of D, and the G chord is extremely common in songs in the key of D.

I want to post or [tab]
guest
You may want to rate the tab now too:
select rating
Please do not post tabs as comments. Select "correction" instead!