Oops, an error
Loading. Please wait.

A Little Too Much tab

version 2
version 2

Whole song

Interactive

Video

4,207 views 36 this week
1 commentread comment
1 2 3 4 5
x 8
add to favorites
×
Save as Personal and add changes to this tab that will be seen only by you. Learn more ›
×
You can save this tab as Personal to edit and correct it or add notes. All changes will be seen only by you. Learn more »
launch autoscroll
font size
0
reset
how to read this tab
guitar tuner
edit
Autoscroll
slow
fast
+/-
esc
set tempo
stop
This is my first tab ever, tell me if there is anything wrong, under the chords there's the tab :) 
I hope you enjoy 
**I love this song**

Shawn Mendes
A Little Too Much
Capo 4th fret

               [Chords used]
                E A D G B e
                -----------
       G        3 2 0 0 3 3
       Em7      0 2 2 0 3 3
       Cadd9    - 3 2 0 3 3
       D        - - 0 2 3 2
       D(11)/F# 2 - 0 0 3 3

[Intro] TAB

Em7 - G      - Cadd9

    Em7                 G                       Cadd9                                                 
e|--------------------------------------------------------------------------------|
B|--------3--------------------3----------------------3------3------3-------------|
G|----0------0---0---------0------0---0-----------0------0------0------0---0------|
D|--------------------------------------------------------------------------------|
A|--2---2------2--------------------------------3---3------3------3------3--------|
E|----------------------3----3------3---------------------------------------------|

    Em7                 G                                 Cadd9 
e|-----------------------------------(3)------------------------------------------|
B|--------3--------------------3------------3---------------------------3---------|
G|----0------0---0---------0------0-----0------0---0--------0---0---0-------0-----|
D|--------------------------------------------------------------------------------|
A|--2---2------2------------------------------------------3---3---3---3---3-------|
E|----------------------3----3------3-----3------3--------------------------------|

[Verse 1] TAB

Em            G                  Cadd9
She would not show that she was afraid

    Em7                 G                        Cadd9                                                 
e|--------------------------------------------------------------------------------|
B|--------3--------------------3----------------------3------3------3-------------|
G|----0------0---0---------0------0---0-----------0------0------0------0---0------|
D|--------------------------------------------------------------------------------|
A|--2---2------2--------------------------------3---3------3------3------3--------|
E|----------------------3----3------3---------------------------------------------|

Em                    G                     Cadd9
But being and feeling alone was too much to face

    Em7                 G                       Cadd9        X                                         
e|----------------------------------------------------------(3)----(3)------------|
B|--------3--------------------3----------------------3---------------------------|
G|----0------0---0---------0------0---0-----------0------0------0------0---0------|
D|--------------------------------------------------------------------------------|
A|--2---2------2--------------------------------3---3------3------3------3--------|
E|----------------------3----3------3---------------------------------------------|
 
Em7               G                 Cadd9
Though everyone said that she was so strong

    Em7                 G                        Cadd9                                                 
e|--------------------------------------------------------------------------------|
B|--------3--------------------3----------------------3------3------3-------------|
G|----0------0---0---------0------0---0-----------0------0------0------0---0------|
D|--------------------------------------------------------------------------------|
A|--2---2------2--------------------------------3---3------3------3------3--------|
E|----------------------3----3------3---------------------------------------------| 

Em7                                     G                Cadd9
What they didn't know was that she could barely carry on

    Em7                 G                        Cadd9                                                 
e|--------------------------------------------------------------------------------|
B|--------3--------------------3----------------------3------3------3-------------|
G|----0------0---0---------0------0---0-----------0------0------0------0---0------|
D|--------------------------------------------------------------------------------|
A|--2---2------2--------------------------------3---3------3------3------3--------|
E|----------------------3----3------3---------------------------------------------|

[Pre Chorus] TAB
                     
                      Em7      G  Cadd9
But she knew that she would be okay

    Em7          G              Cadd9                                                 
e|--------------------------------------------------------------|
B|----------------------------------3------3------3-------------|
G|----0---0------0---0----------0------0------0------0---0------|
D|--------------------------------------------------------------|
A|--2---2---------------------3---3------3------3------3--------|
E|-------------3---3--------------------------------------------|

                    Em7      G  Cadd9
So she didn't let it get in her way

    Em7          G              Cadd9                                                 
e|--------------------------------------------------------------|
B|----------------------------------3------3------3-------------|
G|----0---0------0---0----------0------0------0------0---0------|
D|--------------------------------------------------------------|
A|--2---2---------------------3---3------3------3------3--------|
E|-------------3---3--------------------------------------------| 

[Chorus] TAB

G             D                 Em7        Cadd9
Sometimes it all gets a little too much
 
     G                      D                    Em7                 Cadd9
e|-------------------------------------------------------------------------------|
B|-------------------------------------------------------------------------------|
G|----0---0---0---0------0---0---0---0--------0---0---0---0------0---0---0---0---|
D|-------------------------------------------------------------------------------|
A|------------------------------------------2---2---2---2------3---3---3---3-----|
E|--3---3---3---3------2---2---2---2---------------------------------------------| 

               G            D                 Em7        Cadd9
But you gotta realize that soon the fog will clear up

     G                      D                    Em7                  Cadd9
e|-------------------------------------------------------------------------------|
B|-------------------------------------------------------------------------------|
G|----0---0---0---0------0---0---0---0--------0---0---0---0------0---0---0---0---|
D|-------------------------------------------------------------------------------|
A|------------------------------------------2---2---2---2------3---3---3---3-----|
E|--3---3---3---3------2---2---2---2---------------------------------------------| 

                   G            D            Em7        Cadd9
And you don't have to be afraid because we're all the same

     G                      D                    Em7                  Cadd9
e|-------------------------------------------------------------------------------|
B|-------------------------------------------------------------------------------|
G|----0---0---0---0------0---0---0---0--------0---0---0---0------0---0---0---0---|
D|-------------------------------------------------------------------------------|
A|------------------------------------------2---2---2---2------3---3---3---3-----|
E|--3---3---3---3------2---2---2---2---------------------------------------------|  

                  G            D                   Em7      Cadd9
And we know that sometimes it all gets a little too much

     G                      D                    Em7                  Cadd9
e|-------------------------------------------------------------------------------|
B|-------------------------------------------------------------------------------|
G|----0---0---0---0------0---0---0---0--------0---0---0---0------0---0---0---0---|
D|-------------------------------------------------------------------------------|
A|------------------------------------------2---2---2---2------3---3---3---3-----|
E|--3---3---3---3------2---2---2---2---------------------------------------------| 

[Verse 2]
Em7                  G                    Cadd9         G       D/F#  
She would always tell herself she could do this
Em7                 G                    Cadd9          G       D/F#
She would use no help it would be just fine
Em7                  G                    Cadd9      G       D/F#
But when it got hard she would lose her focus
Em7         G                        Cadd9 
So take my hand and it will be alright

[Pre Chorus]
                        Em7   G       Cadd9
And she knew that she would be okay
                     Em7    G        Cadd9(once)
So she didn't let it get in her way

[Chorus]

G              D                Em7     Cadd9
Sometimes it all gets a little too much
            G                D                Em7      Cadd9
But you gotta realize that soon the fog will clear up
                    G                     D         Em7        Cadd9
And you don't have to be afraid because we're all the same
                 G                 D                 Em7      Cadd9
And we know that sometimes it all gets a little too much

TAB

e|-----------3-3-3-5-5-5-7-7-7---------------------------|

A little too muchhhh
e|-----------3-3-3-5-5-5-7-7-7---------------------------| X4

Chorus: TAB

G              D                Em7     Cadd9
Sometimes it all gets a little too much 

     G            D        Em7       Cadd9
e|--------------------------------------------|
B|--0-----------0---------3-3-------3---------|
G|------------------------0-0-------0---------|
D|--------------------------------------------|
A|------------------------2-2-------3---------|
E|--3-----------2-----------------------------| 

              G              D                Em7      Cadd9
But you gotta realize that soon the fog will clear up

     G            D        Em7       Cadd9
e|--------------------------------------------|
B|--0-----------0---------3---------3---------|
G|------------------------0---------0---------|
D|--------------------------------------------|
A|------------------------2---------3---------|
E|--3-----------2-----------------------------| 

                    G                     D         Em7        Cadd9
And you don't have to be afraid because we're all the same

    G                    D                    Em7                   Cadd9

e|--------------------------------------------------------------------------------|
B|-------3--------------------3--------------------3---------------------3--------|
G|----0-----0---0---------2------2---2---------0------0---0----------0------0---0-|
D|----------------------0---0------0----------------------------------------------|
A|-------------------------------------------2---2------2----------3---3------3---|
E|--3---3-----3-------------------------------------------------------------------| 
                 G                 D                 Em7      Cadd9
And we know that sometimes it all gets a little too much

    G                    D                    Em7                   Cadd9

e|--------------------------------------------------------------------------------|
B|-------3--------------------3--------------------3---------------------3--------|
G|----0-----0---0---------2------2---2---------0------0---0----------0------0---0-|
D|----------------------0---0------0----------------------------------------------|
A|-------------------------------------------2---2------2----------3---3------3---|
E|--3---3-----3-------------------------------------------------------------------|

[Chorus]

G              D                Em7     Cadd9
Sometimes it all gets a little too much
              G              D                Em7      Cadd9
But you gotta realize that soon the fog will clear up
                    G                     D         Em7        Cadd9
And you don't have to be afraid because we're all the same
                 G              D                 Em7      Cadd9     G     (once) 
And we know that sometimes it all gets a little too much

            
            
Suggest correction
Creating personal tab
Creating personal tab
You can edit any tab online and save it as your Personal.

You can edit, replace or remove any tab part or add personal notes – all changes will be seen only by you.

Personal tabs can be accessed anytime from any device, even offline.
Learn more »
comments
print report bad tab
1 comment total.
0 reply
sica-jes98 128 Oct 10, 2015 09:16 PM

Omg thank you so much!!! :D

guest
You may want to rate the tab now too:
select rating
Wanna post a correction for this tab? Suggest correction