Oops, an error
Loading. Please wait.

Air tab

version 2
version 2

Whole song

961 views 18 this week
no commentswrite comment
1 2 3 4 5
x 4
add to favorites
×
Save as Personal and add changes to this tab that will be seen only by you. Learn more ›
×
You can save this tab as Personal to edit and correct it or add notes. All changes will be seen only by you. Learn more »
launch autoscroll
font size
0
reset
how to read this tab
guitar tuner
edit
Autoscroll
slow
fast
+/-
esc
set tempo
stop
Author
Difficulty
Chords: C, D, F, Fm
Strumming pattern:
Down, down, up, down, up, down, up, down, up


[Intro/Verse]

Never thought that we would end up here,should've known it from the start... 
e|-------0--t-----------------------------------|
B|-----1----t------1-t------1-t-----------------|
G|---2------t----0---t----0---t-----------------|x8
D|-------------2-----t--3-----t-----------------|
A|----------------------------------------------|
E|----------------------------------------------|


[Chorus]

  C                     D
You, you don't mean no harm
                         F        Fm                         C
But you're stringin' me along and I don't have the time to spare
                            D
And I, I'm trying hard to breathe
                       F         Fm                     C   
But you're suffocating me, this time I'm coming up for air


Air, air, air, air, air, air... 
e|-------0--t-----------------------------------|
B|-----1----t------1-t------1-t-----------------|
G|---2------t----0---t----0---t-----------------|x8
D|-------------2-----t--3-----t-----------------|
A|----------------------------------------------|
E|----------------------------------------------|

Always tryna put your two cents in... 
e|-------0--t-----------------------------------|
B|-----1----t------1-t------1-t-----------------|
G|---2------t----0---t----0---t-----------------|x8
D|-------------2-----t--3-----t-----------------|
A|----------------------------------------------|
E|----------------------------------------------|

  C                     D
You, you don't mean no harm
                         F        Fm                         C
But you're stringin' me along and I don't have the time to spare
                            D
And I, I'm trying hard to breathe
                       F         Fm                     C   
But you're suffocating me, this time I'm coming up for air

Air, air, air, air, air, air... 
e|-------0--t-----------------------------------|
B|-----1----t------1-t------1-t-----------------|
G|---2------t----0---t----0---t-----------------|x16
D|-------------2-----t--3-----t-----------------|
A|----------------------------------------------|
E|----------------------------------------------|

Trying to hold me down but I'm surfacing... 
e|-----------------------------------------------|
B|-------1--t------1-t------1-t------------------|
G|-----0----t----0---t----0---t------------------|x8
D|---2------t--2-----t--3-----t------------------|
A|-----------------------------------------------|
E|-----------------------------------------------|

  C                     D
You, you don't mean no harm
                         F        Fm                         C
But you're stringin' me along and I don't have the time to spare
                            D
And I, I'm trying hard to breathe
                       F         Fm                     C   
But you're suffocating me, this time I'm coming up for air

Air, air, air, air, air, air... 
e|-------0--t-----------------------------------|
B|-----1----t------1-t------1-t-----------------|
G|---2------t----0---t----0---t-----------------|x16
D|-------------2-----t--3-----t-----------------|
A|----------------------------------------------|
E|----------------------------------------------|


********************
| t   Tapping
********************

            
            
Suggest correction
Creating personal tab
Creating personal tab
You can edit any tab online and save it as your Personal.

You can edit, replace or remove any tab part or add personal notes – all changes will be seen only by you.

Personal tabs can be accessed anytime from any device, even offline.
Learn more »
comments
print report bad tab
guest
You may want to rate the tab now too:
select rating
Wanna post a correction for this tab? Suggest correction