Oops, an error
Loading. Please wait.

Hold On tab

version 1
version 1

Whole song

  • This version provides the picking, which is how it... Show more
2,122 views 87 this week
no commentswrite comment
1 2 3 4 5
x 4
add to favorites
×
Save as Personal and add changes to this tab that will be seen only by you. Learn more ›
×
You can save this tab as Personal to edit and correct it or add notes. All changes will be seen only by you. Learn more »
launch autoscroll
font size
0
reset
how to read this tab
guitar tuner
edit
Autoscroll
slow
fast
+/-
esc
set tempo
stop
About this tab version
This version provides the picking, which is how it is played on the actual track. Was this info helpful? Yes No
This is a great song, so here's the tab for it!
I mostly listened to the song in order to figure out how to play it.

NOTE: Play the G bar chord I find that helps with the picking.

[Intro] and [Verse]
     Am          F          C
e|---------------------|----------------------|
B|--1-------1-------1--|--1-----1--------1----|
G|--2--2----2--2-------|--0--0--0--0----------|  x6   
D|--2-------3----3-----|--2-----2-----2-------|
A|--0-------3----------|--3-----3-------------|
E|---------------------|----------------------|

[Pre-Chorus]

And my dad said, "Shawn stay with me..."

     C          F             Am        G
e|----------------------|------------------------|
B|--1-------1--------1--|--1-------3--------3----|
G|--0--0----2--2--------|--2--2----4--4----------|  x4
D|--2-------3-----3-----|--2-------5-----5-------|
A|--3-------3-----------|--0-------5-------------|
E|----------------------|------------------------|


[Chorus]

I don't know what / you're going through...

     F          C           G          Am
e|----------------------|----------------------|
B|--1-------1--------1--|--3-------1--------1--|
G|--2--2----0--0--------|--4--4----2--2--------|  x2
D|--3-------2-----2-----|--5-------2-----2-----|
A|--3-------3-----------|--5-------0-----------|
E|----------------------|----------------------|

And it won't slow down / no matter what you do /
So you just gotta

    F          C          E7          Am
e|---------------------|--------------------------|
B|--1-------1-------1--|--0-------1--------1------|
G|--2--2----0--0-------|--1--1----2--2------------| 
D|--3-------2----2-----|--0-------2-----2---------|
A|--3-------3----------|--2-------0---------------|
E|---------------------|--------------------------|

hold on / All we can do is

    F          C              G          C
e|----------------------|--------------------------|
B|--1-------1--------1--|--3-------1--------1------|
G|--2--2----0--0--------|--4--4----0--0------------|
D|--3-------2-----2-----|--5-------2-----2---------|
A|--3-------3-----------|--5-------3---------------|
E|----------------------|--------------------------|

hold on

    F         C             G       C*
e|----------------------|--------------------------|
B|--1-------1--------1--|--3-------1---------------|
G|--2--2----0--0--------|--4--4----0---------------|
D|--3-------2-----2-----|--5-------2---------------|
A|--3-------3-----------|--5-------3---------------|
E|----------------------|--------------------------|

(*play once)

[Verse]

These days are flying by... 

     Am          F          C
e|---------------------|----------------------|
B|--1-------1-------1--|--1-----1--------1----|
G|--2--2----2--2-------|--0--0--0--0----------|  x4 
D|--2-------3----3-----|--2-----2-----2-------|
A|--0-------3----------|--3-----3-------------|
E|---------------------|----------------------|


[Pre-Chorus]

And my dad said, "Shawn stay with me..."

     C          F          Am          G
e|----------------------|------------------------|
B|--1-------1--------1--|--1-------3--------3----|
G|--0--0----2--2--------|--2--2----4--4----------|  x4
D|--2-------3-----3-----|--2-------5-----5-------|
A|--3-------3-----------|--0-------5-------------|
E|----------------------|------------------------|


[Chorus]

I don't know what / you're going through...

     F          C          G          Am
e|----------------------|------------------------|
B|--1-------1--------1--|--3-------1--------1----|
G|--2--2----0--0--------|--4--4----2--2----------|  x2
D|--3-------2-----2-----|--5-------2-----2-------|
A|--3-------3-----------|--5-------0-------------|
E|----------------------|------------------------|

And it won't slow down / no matter what you do /
So you just gotta 

    F          C          E7          Am
e|---------------------|------------------------|
B|--1-------1-------1--|--0-------1--------1----|
G|--2--2----0--0-------|--1--1----2--2----------| 
D|--3-------2----2-----|--0-------2-----2-------|
A|--3-------3----------|--2-------0-------------|
E|---------------------|------------------------|

hold on

    F         C               G          C
e|----------------------|------------------------|
B|--1-------1--------1--|--3-------1--------1----|
G|--2--2----0--0--------|--4--4----0--0----------|
D|--3-------2-----2-----|--5-------2-----2-------|
A|--3-------3-----------|--5-------3-------------|
E|----------------------|------------------------|

All we can do is hold on

    F         G/B**          B**        F**
e|----------------------|----------------------------|
B|--1-------0--------0--|--5-------10----------10----|
G|--2--2----0--0--------|--5--5----10--10------------|
D|--3-------0-----0-----|--5-------10------10--------|
A|--3-------2-----------|--3-------8-----------------|
E|----------------------|----------------------------|

(**Different from first chorus: F chord played on 8th fret)

[Bridge]

All we can do is hold on...

    Am         G/B          B        F
e|----------------------|----------------------------|
B|--1-------0--------0--|--5-------10----------10----|
G|--2--2----0--0--------|--5--5----10--10------------|  x2
D|--2-------0-----0-----|--5-------10------10--------|
A|--0-------2-----------|--3-------8-----------------|
E|----------------------|----------------------------|

Just hold on for me

     Am          G/B          F
e|----------------------|-----------------------------|
B|--1-------0--------0--|--10--13*--------------------|
G|--2--2----0--0--------|--10-------------------------|
D|--2-------0-----0-----|--10-------------------------|
A|--0-------2-----------|--8--------------------------|
E|----------------------|-----------------------------|

(*slight difference which you can hear in the song)

[Pre-Chorus]

And my dad said, "Shawn stay with me / Everything

     C          F           Am          G
e|----------------------|------------------------|
B|--1-------1--------1--|--1-------3--------3----|
G|--0--0----2--2--------|--2--2----4--4----------|
D|--2-------3-----3-----|--2-------5-----5-------|
A|--3-------3-----------|--0-------5-------------|
E|----------------------|------------------------|

will be alright."

     C          F           Am          G*
e|----------------------|-------------------------|
B|--1-------1--------1--|--1-------3--------------|
G|--0--0----2--2--------|--2--2----4--------------|
D|--2-------3-----3-----|--2-------5--------------|
A|--3-------3-----------|--0-------5--------------|
E|----------------------|-------------------------|

(*play once)

[Chorus]

I don't know what / you're going through...

     F          C           G          Am
e|----------------------|----------------------|
B|--1-------1--------1--|--3-------1--------1--|
G|--2--2----0--0--------|--4--4----2--2--------|  x2
D|--3-------2-----2-----|--5-------2-----2-----|
A|--3-------3-----------|--5-------0-----------|
E|----------------------|----------------------|

And it won't slow down / no matter what you do /
So you just gotta

    F          C          E7          Am
e|---------------------|------------------------|
B|--1-------1-------1--|--0-------1--------1----|
G|--2--2----0--0-------|--1--1----2--2----------| 
D|--3-------2----2-----|--0-------2-----2-------|
A|--3-------3----------|--2-------0-------------|
E|---------------------|------------------------|

hold on...

    F         C          G          C
e|----------------------|------------------------|
B|--1-------1--------1--|--3-------1--------1----|
G|--2--2----0--0--------|--4--4----0--0----------|  x2
D|--3-------2-----2-----|--5-------2-----2-------|
A|--3-------3-----------|--5-------3-------------|
E|----------------------|------------------------|


[Outro]

Yeah, you just gotta hold on / Just hold on for me

    F         C             G*     C*
e|----------------------|--------------------------|
B|--1-------1--------1--|--3-------1---------------|
G|--2--2----0--0--------|--4-------0---------------| 
D|--3-------2-----2-----|--5-------2---------------|
A|--3-------3-----------|--5-------3---------------|
E|----------------------|--------------------------|

(*play once)

            
            
Suggest correction
Creating personal tab
Creating personal tab
You can edit any tab online and save it as your Personal.

You can edit, replace or remove any tab part or add personal notes – all changes will be seen only by you.

Personal tabs can be accessed anytime from any device, even offline.
Learn more »
comments
print report bad tab
guest
You may want to rate the tab now too:
select rating
Wanna post a correction for this tab? Suggest correction