Oops, an error
Loading. Please wait.

Honest tab

version 2
version 2

Whole song

  • First tab, wanted to give back to the community --... Show more
  • It sounds 98% like the track.

Interactive

448 views 3 this week
no commentswrite comment
1 2 3 4 5
2 more votes to show rating
add to favorites
×
Save as Personal and add changes to this tab that will be seen only by you. Learn more ›
×
You can save this tab as Personal to edit and correct it or add notes. All changes will be seen only by you. Learn more »
launch autoscroll
font size
0
reset
how to read this tab
guitar tuner
edit
Autoscroll
slow
fast
+/-
esc
set tempo
stop
About this tab version
It sounds 98% like the track. Was this info helpful? Yes No
Another great song that I love to play.
I listened to the song to figure out the picking, and it sounds 98% like the track :)
I put the beat underneath (1 2 3 4) so it's clear when to pick the notes.
Hope you like it!

CAPO: 7th FRET

[Intro]

    D        A        Bm              G              D
e|-2--x--x--0---|--------------|-------x------|--2-----2------|
B|-3--x--x--2---|--3-----3-----|-------x------|--3-----3------|
G|----x--x------|--4-----4-----|----4--x--4---|-----2-----2---|
D|-0--x--x--2---|-----4-----4--|--5----x--5---|--0-----0------|
A|----x--x------|--2-----2-----|-------x------|---------------|
E|----x--x------|--------------|-3-----x--3---|---------------|
   1  2  3  4      1  2  3  4    1  2  3  4      1  2  3  4


[Verse] - same as Intro

Hey, how's it going...

    D        A        Bm              G              D
e|-2--x--x--0---|--------------|-------x------|--2-----2------|
B|-3--x--x--2---|--3-----3-----|-------x------|--3-----3------|
G|----x--x------|--4-----4-----|----4--x--4---|-----2-----2---|  x4
D|-0--x--x--2---|-----4-----4--|--5----x--5---|--0-----0------|
A|----x--x------|--2-----2-----|-------x------|---------------|
E|----x--x------|--------------|-3-----x--3---|---------------|
   1  2  3  4      1  2  3  4    1  2  3  4      1  2  3  4


[Chorus]

... hate I hurt you

     Bm      G       D      A      
e|--------------|---------------|
B|-----3--------|-----3-----2---|
G|-----4-----4--|-----2-----2---|  x3
D|-----------5--|---------------|
A|--2-----------|--0-----0------|
E|--------3-----|---------------|
    1  2  3  4     1  2  3  4

And I'm just tryna, I'm just tryna / Baby, I'm just tryna be

     Em      A       G    A
e|--------x------|---------------|
B|--0--0--x--2---|--------2------|
G|--0--0--x--2---|--4-----2------|
D|--------x------|--5--------2---|
A|--2--2--x--0---|-----2--0------|
E|--------x------|--3------------|
    1  2  3  4      1  2  3  4

honest / I'm tryna be honest with you...

    D        A        Bm              G              D
e|-2--x--x--0---|--------------|-------x------|--2-----2------|
B|-3--x--x--2---|--3-----3-----|-------x------|--3-----3------|
G|----x--x------|--4-----4-----|----4--x--4---|-----2-----2---|  x2
D|-0--x--x--2---|-----4-----4--|--5----x--5---|--0-----0------|
A|----x--x------|--2-----2-----|-------x------|---------------|
E|----x--x------|--------------|-3-----x--3---|---------------|
   1  2  3  4      1  2  3  4    1  2  3  4      1  2  3  4


[Verse]

Hey, can you listen?...

    D        A        Bm              G              D
e|-2--x--x--0---|--------------|-------x------|--2-----2------|
B|-3--x--x--2---|--3-----3-----|-------x------|--3-----3------|
G|----x--x------|--4-----4-----|----4--x--4---|-----2-----2---|  x4
D|-0--x--x--2---|-----4-----4--|--5----x--5---|--0-----0------|
A|----x--x------|--2-----2-----|-------x------|---------------|
E|----x--x------|--------------|-3-----x--3---|---------------|
   1  2  3  4      1  2  3  4    1  2  3  4      1  2  3  4


[Chorus]

... hate I hurt you

     Bm      G       D      A      
e|--------------|---------------|
B|-----3--------|-----3-----2---|
G|-----4-----4--|-----2-----2---|  x3
D|-----------5--|---------------|
A|--2-----------|--0-----0------|
E|--------3-----|---------------|
    1  2  3  4     1  2  3  4

And I'm just tryna, I'm just tryna / Baby, I'm just tryna be

     Em      A       G    A
e|--------x------|---------------|
B|--0--0--x--2---|--------2------|
G|--0--0--x--2---|--4-----2------|
D|--------x------|--5--------2---|
A|--2--2--x--0---|-----2--0------|
E|--------x------|--3------------|
    1  2  3  4      1  2  3  4

honest / I'm tryna be honest with you...

    D        A        Bm              G              D
e|-2--x--x--0---|--------------|-------x------|--2-----2------|
B|-3--x--x--2---|--3-----3-----|-------x------|--3-----3------|
G|----x--x------|--4-----4-----|----4--x--4---|-----2-----2---|  x2
D|-0--x--x--2---|-----4-----4--|--5----x--5---|--0-----0------|
A|----x--x------|--2-----2-----|-------x------|---------------|
E|----x--x------|--------------|-3-----x--3---|---------------|
   1  2  3  4      1  2  3  4    1  2  3  4      1  2  3  4

[Bridge]

Oh, oh, oh

    G        A       Bm
e|--------------|--------------|
B|-----------2--|--3-----3-----|
G|--4--------2--|--4-----4-----|
D|--5-----------|-----4-----2--|
A|-----------0--|--2-----2-----|
E|--3-----------|--------------|
    1  2  3  4     1  2  3  4

I don't wanna see you cry

        D             G
e|--2--------2--|--------------|
B|--3--------3--|--------------|
G|--------------|--4-----4-----|
D|--0--------0--|--5-----5-----|
A|--------------|-----5-----5--|
E|--------------|--3-----3-----|
    1  2  3  4     1  2  3  4

Oh, oh, oh / Swear that

    G        A       Bm
e|--------------|--------------|
B|-----------2--|--3-----3-----|
G|--4--------2--|--4-----4-----|
D|--5-----------|-----4-----2--|
A|-----------0--|--2-----2-----|
E|--3-----------|--------------|
    1  2  3  4     1  2  3  4

I don't wanna see you cry

        D             G
e|--2--------2--|--------------|
B|--3--------3--|--------------|
G|--------------|--4-----------|
D|--0--------0--|--5-----------|
A|--------------|--------------|
E|--------------|--3-----------|
    1  2  3  4     1  2  3  4


[Chorus] - 2nd time
*1st time there's no picking

I hate I hurt you...

     Bm      G       D      A      
e|--------------|---------------|
B|-----3--------|-----3-----2---|
G|-----4-----4--|-----2-----2---|  x3
D|-----------5--|---------------|
A|--2-----------|--0-----0------|
E|--------3-----|---------------|
    1  2  3  4     1  2  3  4

And I'm just tryna, I'm just tryna / Baby, I'm just tryna be honest

     Em      A       G    A
e|--------x------|---------------|
B|--0--0--x--2---|--------2------|
G|--0--0--x--2---|--4-----2------|
D|--------x------|--5--------2---|
A|--2--2--x--0---|-----2--0------|
E|--------x------|--3------------|
    1  2  3  4      1  2  3  4


[Outro]

    D        A        Bm              G              D
e|-2--x--x--0---|--------------|-------x------|--2-----2------|
B|-3--x--x--2---|--3-----3-----|-------x------|--3-----3------|
G|----x--x------|--4-----4-----|----4--x--4---|-----2-----2---| 
D|-0--x--x--2---|-----4-----4--|--5----x--5---|--0-----0------|
A|----x--x------|--2-----2-----|-------x------|---------------|
E|----x--x------|--------------|-3-----x--3---|---------------|
   1  2  3  4      1  2  3  4    1  2  3  4      1  2  3  4


************************************

| x   Dead note

************************************

            
            
Suggest correction
Creating personal tab
Creating personal tab
You can edit any tab online and save it as your Personal.

You can edit, replace or remove any tab part or add personal notes – all changes will be seen only by you.

Personal tabs can be accessed anytime from any device, even offline.
Learn more »
Give kudos to tab author, rate the tab!
1 2 3 4 5
comments
print report bad tab
guest
You may want to rate the tab now too:
select rating
Wanna post a correction for this tab? Suggest correction