Oops, an error
Loading. Please wait.

Lights On Tab

487 views 54 this week
1 commentread comment
1 2 3 4 5
1 last vote to show rating
add to favorites
launch autoscroll
font size
0
reset
how to read this tab
guitar tuner
Autoscroll
slow
fast
+/-
esc
set tempo
stop
Help us to improve Ultimate-Guitar.com Take our survey!
×
Author
Difficulty
intermediate
Lights on – Shawn Mendes

x is a tap 


e|-----5-----5--------|----------------------|
B|-------------7--5\3-|----------------------|
G|--------------------|----6-----6/7-6-------|     x 2
D|--------------------|----------------6~----|
A|-0----x--0-----(0)--|-0----x--0------------|     (0) every 2nd time
E|--------------------|----------------0-(0)-|


  (Bm)                 (E) 

e|--------------------|----------------------|
B|-----3-----3-2------|----------------------|
G|------------------2-|----1--1/2-1----------|
D|--------------------|-----------------2----|     x 1
A|-2-----x-2----x-2---|----------------------|
E|--------------------|-0----0-------x-0-----|



e|-----5-----5--------|-----5---5------------|
B|-------------7--5\3-|-------7--------------|
G|--------------------|----------------------|     x 1
D|--------------------|----------------------|
A|-0----x--0----------|-0--------------------|
E|--------------------|----------------------|


[Chorus]  (single reggae style off beat strum on 2 and 4)

D  -   A     F#m  -  E  


_______________________________________________________
Requested by Rachel, Darci, Laura and Melissa in Sydney
Suggest correction
Give kudos to tab author, rate the tab!
1 2 3 4 5
comments
print report bad tab
1 comment total.
0 reply
TrisVampsDrums 509 Nov 24, 2016 11:38 PM

This tab is amazing, it is so accurate and songs exactly like the song. Thank you so much for submitting this!! :D

guest
You may want to rate the tab now too:
select rating
Wanna post a correction for this tab? Suggest correction