Oops, an error
Loading. Please wait.

Mercy Tab

version 1
version 1

Solo

Whole song

  • Not 100% the same as the song but sounds very similar and nice.
  • Strumming Pattern and Chords Match the Music Video.
4,711 views 432 this week
2 commentsread comments
1 2 3 4 5
x 7
add to favorites
launch autoscroll
font size
0
reset
how to read this tab
guitar tuner
Autoscroll
slow
fast
+/-
esc
set tempo
stop
Help us to improve Ultimate-Guitar.com Take our survey!
×
Author
Difficulty
advanced
This is Mercy arranged by Andrew Foy.
https://www.youtube.com/watch?v=oYGRAYVwKMM

Intro

e|---------------------------------------------------------------------------|
B|---------3-----------------------------------------------------------------|  x2
G|----2/4-----2/4------2h4---------------------------------------------------|
D|--------------------------/4--2-----0h2--2/4------0h2----------------------|
A|---------------------------------2------------2---0------------------------|
E|-0----------------3--------------------------------------------------------|

Verse
e|---------------------------------------------------------------------------|
B|---------------------------------------------------------------------------|  x2
G|---------------------------------------------------------------------------|
D|-----2/4-2--------0h2-2-----2-2-0-2--2/4---0-------------------------------|
A|---2------------2-------2-2-------0------0---2-----------------------------|
E|-0----------0-3------------------------------------------------------------|

Pre-Chorus
e|---------------------------------------------------------------------------|
B|--3-----0--------3---------------3-----------------------------------------|
G|--0-------2------0-----0h2-2-----4-----4-4-2-2/4--2------------------------|
D|------------0-------0---------4------------------------2/4--2p0------------|
A|-----2---------------------------2--2--------0------0----------------------|
E|--0--------------3---------------------------------------------------------|                                
                                                                Chorus
e|--------------------------------------------------------------0------------|
B|-3--------------3-------------3---------------------5h7--5----3--3-3---0---|
G|-0--------0-----0-------------4---4-4-2-4--4/7----------------0----0-------|
D|------2/4----0-------0h2-2------------------------------------2------2----0|
A|----2--------------2--------0-2-2-------0-------0-------------2------------|
E|-0--------------3---------------------------------------------0------------|

e|-------------0h2-0--0---------0---0----------------------------------------|
B|-----------------------3-3-----------------3/5-5/7---5--3-3-----0----------|
G|-----0-------------------4-------------2---2---------0----0--------------0-|
D|---0------------------------4---4------2----------------------0---0---0----|
A|--------------------2---------------0--------------------------------------|
E|-3------3--------------------------------------------0--------------3------|

e|---0h2-0--0---------0---0--------------------------------------------------|
B|-------------3-3------------------3/7-5-----0-----------------3-3----------|
G|---------------4------------2-----2------------7h9-9----------4------------|
D|------------------4---4-----2------------------------------0---------------|
A|----------2---------------0----0-------------------------------------------|
E|-3---------------------------------------0------------0--3----3---3/7--7---|

e|---------------------------------------------------------------------------|
B|----7--7---7\5------5h7-5-------------------3-3--------------7--7-----7\5--|
G|----7---------------6---------7h9-9---------0----------------7-------------|
D|-0-------------7----7-------9-0----------0---------------0-----------------|
A|-------------0---0------------------------------------------------------0--|
E|----7----7----------------0----------0-3----3----3/7--7------7-----7-------|

e|---------------------------------------------------------------------------|
B|---------------------------------------------------------------------------|
G|-------6h7p6---------------------------------------------------------------|
D|--7-----------7------------------------------------------------------------|
A|----0----------------------------------------------------------------------|
E|-----------------0---------------------------------------------------------|

Verse
e|---------------------------------------------------------------------------|
B|---------------------------------------------------------------------------|  x2
G|---------------------------------------------------------------------------|
D|-----2/4-2--------0h2-2-----2-2-0-2--2/4---0-------------------------------|
A|---2------------2-------2-2-------0------0---2-----------------------------|
E|-0----------0-3------------------------------------------------------------|

Pre-Chorus
e|---------------------------------------------------------------------------|
B|--3-----0--------3---------------3-----------------------------------------|
G|--0-------2------0-----0h2-2-----4-----4-4-2-2/4--2------------------------|
D|------------0-------0---------4------------------------2/4--2p0------------|
A|-----2---------------------------2--2--------0------0----------------------|
E|--0--------------3---------------------------------------------------------|                    
                                                                2nd Chorus
e|--------------------------------------------------------------0------------|
B|-3--------------3-------------3---------------------5h7--5----3--3-3---0---|
G|-0--------0-----0-------------4---4-4-2-4--4/7----------------0----0-------|
D|------2/4----0-------0h2-2------------------------------------2------2----0|
A|----2--------------2--------0-2-2-------0-------0-------------2------------|
E|-0--------------3---------------------------------------------0------------|

e|-------------0h2-0--0---------0---0----------------------------------------|
B|-----------------------3-3-----------------3/5-5/7---5--3-3-----0----------|
G|-----0-------------------4-------------2---2---------0----0--------------0-|
D|---0------------------------4---4------2----------------------0---0---0----|
A|--------------------2---------------0-----0--------------------------------|
E|-3------3--------------------------------------------0--------------3------|

e|---0h2-0--0---------0---0--------------------------------------------0h2-0-|
B|-------------3-3------------------3/7-5----5--3-3----0---------------------|
G|---------------4------------2-----2--------0----0-------------0------------|
D|------------------4---4-----2----------------------0---0---0---------------|
A|----------2---------------0----0-------------------------------------------|
E|-3-----------------------------------------0-------------3--------3--------|

e|-0---------0---0--------------------------------------------0h2-0--0-------|
B|----3-3------------------3/5-5/7--5--3-3----0-------------------------3-3--|
G|------4------------2-----2--------0----0-------------0------------------4--|
D|---------4---4-----2----------------------0---0---0------------------------|
A|-2---------------0----0--------------------------------------------2-------|
E|----------------------------------0-------------3--------3-----------------|

e|---0---0-------------------------------------------------------------------|
B|----------------3/7-5----0--------------------3--3-------------------------|
G|-----------2----2-----------7h9-9-------------4----------------------------|
D|-4---4-----2------------------------------0--------------------------------|
A|---------0---0-------------------------------------------------------------|
E|-----------------------0------------0--3------3-----3/7--7-----------------|

e|---------------------------------------------------------------------------|
B|----7--7---7\5------5h7-5-------------------3-3--------------7--7-----7\5--|
G|----7---------------6---------7h9-9---------0----------------7-------------|
D|-0-------------7----7-------9-0----------0---------------0-----------------|
A|-------------0---0------------------------------------------------------0--|
E|----7----7----------------0----------0-3----3----3/7--7------7-----7-------|

e|---------------------------------------------------------------------------|
B|---------------------------------------------------------------------------|
G|-------6h7p6---------------------------------------------------------------|
D|--7-----------7------------------------------------------------------------|
A|----0----------------------------------------------------------------------|
E|-----------------0---------------------------------------------------------|

Bridge
e|----------------------------------------------------------------------------------|
B|----------------------------------------------------------------------------------|
G|----------------------------------------------------------------------------------|
D|--/4----2-4-----2-4-----2-4-----2-4-----------------------------------------------|
A|--------------------------------------------/9----7-9-----7-9-----7-9-----7-9-----|
E|---0-0--0-0--0--0-3--3--3-3--3--3-3-3-3--0--/7-7--7-7--7--7-5--5--5-5--5--5-5-5-5-|

e|----------------------------------------------------------------------------------|
B|----------------------------------------------------------------------------------|
G|----------------------------------------------------------------------------------|
D|---/4----2-4-----2-4-----2-4-----2-4------0-2-------------------------------------|
A|-----------------------------------------------/9----9-9-----9--9p7---------------|
E|-0--0-0--0-0--0--0-3--3--3-3--3--3-3-3-3-------/7-7--7-7--7--7--5-5-5-5-5-5-5-5---|

e|-------2----0--2----0--2----0--2----0--2----2-2-2---2----0--2----0--2----0-|
B|-------0-------0-------0-------0-------0----0-0-0---3-------3-------2------|
G|-------0-------0-------0-------0-------0----0-0-0---4-------4-------2------|
D|------(2)-----(2)------0-------0-------0----0-0-0---4-------4-------2------|
A|------(2)-----(2)------x-------x-------x----x-------x--2----x--2----x--2---|
E|-x-x-x----0----x--0----x--3----x--3----x--3-x-------x-------x-------x------|

e|-2----0--2----(2)---2----0--2----0--2----0--2----0--2-------0--2--2--2--2--|
B|-2-------2----(2)---0-------0-------0-------0-------0-----3----3-----3-----|
G|-2-------2----(2)---0-------0-------0-------0-------0-----0----4-----4-----|
D|-2-------2---------(2)-----(2)------0-------0-------0----(0)---4-----4-----|
A|-x--2----x--2--x---(2)-----(2)------x-------x-------x-----x----x-----x-----|
E|-x-------x-----x----x--0----x--0----x--3----x--3----x--3--x----x-----x-----|

                                   Last Chorus  
                                        o          o        o         o    o
e|-2p0----------0------------------0--------------------------0h2--0--0------|
B|------3p2p0h3--------------------3--3-3----0---------------------0-----3-3-|
G|-----------------/11---10/12-10--0----0----------------0---------0-------4-|
D|-----------------/13-------------2------2-----0-----0----------------------|
A|-0-------------------------------2---------x---------------------x--2------|
E|---------------------------------0---------x-----3---------------x---------|
            
              o   o           o    o          o       o          o    o
e|----0----0----------------------------------------------0h2-0--0-----------|
B|-------------------3/5-5/7--5--3-3-----0--------------------0-----3-3------|
G|--------------2----2--------0----0---------------0----------0-------4------|
D|--4-----------2---------------------0-----0----0---------------------------|
A|-------x----0----------x---------------x--------------------x--2-----------|
E|-------x---------------x----0----------x----3---------------x--------------|

              o           o    o                   o         o    o
e|----0----0------------------------------------------0h2-0--0---------0----0|
B|-----------------3/7-5--5--3-3-----0--------------------0-----3-3----------|
G|--------------2--2------0----0---------------0----------0-------4----------|
D|--4-----------2-----------------0-----0----0-----------------------4-------|
A|-------x----0--------x-------------x--------------------x--2------------x--|
E|-------x-------------x--0----------x-----3--------------x---------------x--|

    o   o           o    o           o     o         o    o          o    o
e|--------------------------------------------0h2-0--0--------0---0----------|
B|---------3/5-5/7--5--3-3-----0------------------0-----3-3------------------|
G|----2----2--------0----0---------------0--------0-------4------------2-----|
D|----2---------------------0-----0----0--------------------4----------2-----|
A|--0----------x---------------x------------------x--2----------x----0-------|
E|-------------x----0----------x-----3------------x-------------x------------|
               
                o              o                           o
e|---------------------0----------------------5-2-2-5-2--2-2p0---------------|
B|-----0--3--0-----3/5---------------3--3--3--3---3------------------/7--5---|
G|---2---(0)-------2-----------------0--0--0--4---4-------------(3)--/7-(6)--|
D|--------------------------0-----0--0--0--0--2---2-------------(3)----------|
A|--------x--------x------x----------x-----x--2---2-----x--------x-------x---|
E|--------x-----0--x------x----3-----x-----x--x---x-----x--------x-------x---|

   o                o
e|----------0----------------------------5-5-2---2-2h3p2p0----0h2--0---------|
B|-----3/5------------3---3---3--(3)--3--3------------------3------0---------|
G|-----2--------------0--(0)--0--(0)--4--4-----------------(0)-----0---------|
D|---2-----------0----0--(0)--0--(0)--2--2-----------------------------------|
A|-----x-------x------x-------x-------2--2-----x---0--------x------x---------|
E|-0---x-------x----3-x-------x-------x--x-----x------------x------x---------|

e|---------------------------------------------------------------------------|
B|---------3-----------------------------------------------------------------|  
G|----2/4-----2/4------2h4---------------------------------------------------|
D|--------------------------/4--2-----0h2--2/4------0h2----------------------|
A|---------------------------------2------------2---0------------------------|
E|-0----------------3--------------------------------------------------------|


************************************

| x   Dead note
| h   Hammer-on
| p   Pull-off
| /   Slide up
| \   Slide down
| o   Wrist thump

************************************
Suggest correction
comments
print report bad tab
2 comments total.
0 reply
j3lurrshades 10 Oct 30, 2016 06:12 AM

do u have the last part? bridge. Thanks !! great work tho

0 reply
AngelaChibbi 236 Nov 06, 2016 05:53 AM

Thanks! Im still working on the rest but it should be up soon

guest
You may want to rate the tab now too:
select rating
Wanna post a correction for this tab? Suggest correction