Oops, an error
Loading. Please wait.

Mercy Tab

version 1
version 1

Whole song

  • Not 100% the same as the song but sounds very similar and nice.
  • Strumming Pattern and Chords Match the Music Video.

Video

2,590 views 237 this week
no commentswrite comment
1 2 3 4 5
x 3
add to favorites
launch autoscroll
font size
0
reset
how to read this tab
guitar tuner
Autoscroll
slow
fast
+/-
esc
set tempo
stop
Help us to improve Ultimate-Guitar.com Take our survey!
×
Author
Difficulty
Capo
intermediate
2nd fret
About this tab version
Not 100% the same as the song but sounds very similar and nice. Was this info helpful? Yes No
Fingerstyle
______________

[Intro]

e|pm------------------------------------------------------------|
B|pm----0-3-0---0------0-----------------0-3-0---0------0-------|
G|pm---2-------2-2-0--2-2-0--0----------2-------2-2-0--2-2-0--0-|
D|pm------------------------2--------------------------------2--|
A|pm-----------------0--------------------------------0---------|
E|0--------3------------------------0--------3----------------|


[Verse]

e|---------------------------------------------------------------------------|
B|---------------------------------------------------------------------------|
G|---------------------------------------------------------------------------|
D|-4-4\2-0-0h2-2--2-2-0-2-4-0----4-4\2-0-0h2-2-2-2-0-2-4-0-------------------|
A|-------------0--------------2--------------0-------------2-----------------|
E|0-----3-----------------0-3---0-------3--------------0-3-------------------|

e|---------------------------------------------------------------------------|
B|---------------------------------------------------------------------------|
G|-4-4--2-2---4-4-2-4-2------------------------------------------------------|
D|----------4----------4-2p0--4-4-0-0-2-2------------------------------------|
A|----------------------------0----------------------------------------------|
E|----0-----3---0---------3-----------3-3------------------------------------|



[Chorus]

e|---------------------------------------------------------------------------|
B|---------------------------------------------------------------------------|
G|--------0--4\2-2-0-0----4-2-2-0-0-2-2-----0--------0-0-4-4-4-2-------------|
D|2-2-0-2--------------2----------------0-2---2--2-2-----0-------------------|
A|----------------------------------0-0------------------2-------------------|
E|-----------0---------3--3----------------------0---3---3-------------------|

e|---------------------------------------------------------------------------|
B|---------------------------------------------------------------------------|
G|-----0--------0-0-4-4-4-2--------------------------------------------------|
D|-0-2---2--2-2-----0--------------------------------------------------------|
A|------------------2--------------------------------------------------------|
E|----------0---3---3--------------------------------------------------------|


[Bridge]

e|---------------------------------------------------------------------------|
B|---------------------------------------------------------------------------|
G|---------------------------------------------------------------------------|
D|pm-4-2-4-2-4-2-4-2-4--4-2-4-2-4-2-4-2-4--4-2-4-2-4-2-4-2-4--0-2-4-4-4-4-4--2-|
A|pm--------------------0-0-0-0-0-0-0-0-0--2-2-2-2-2-2-2-2-2------2----------0-|
E|pm-3-3-3-3-3-3-3-3-3--------------------------------------------3------------|

e|---------------------------------------------------------------------------|
B|---------------------------------------------------------------------------|
G|---------------------------------------------------------------------------|
D|-4-2-4-2-4-2-4-2-4--4-2-4-2-4-2-4-2-4--4-2-4-2-4-2-4-2-4--0-2-4-4-4-4-4--2-|
A|--------------------0-0-0-0-0-0-0-0-0--2-2-2-2-2-2-2-2-2------2----------0-|
E|-3-3-3-3-3-3-3-3-3--------------------------------------------3------------|

[Outro}

e|--------------------------------|
B|----0-3-0---0------0------------|
G|---2-------2-2-0--2-2-0--0------|
D|------------------------2-------|
A|-----------------0--------------|
E|0--------3----------------------|


************************************

| x   Dead note
| g   Grace note
| (n) Ghost note
| h   Hammer-on
| p   Pull-off
| r   Release
| >   Accented note
| t   Tapping
| b   Bend
| br  Bend release
| pb  Pre-bend
| pbr Pre-bend release
| /   Slide up
| \   Slide down
| ~   Vibrato
| s   Slap
| P   Pop
| PM  Palm mute
| TR  Trill
| N   Tremolo

************************************
Suggest correction
Give kudos to tab author, rate the tab!
1 2 3 4 5
comments
print report bad tab
guest
You may want to rate the tab now too:
select rating
Wanna post a correction for this tab? Suggest correction