Oops, an error
Loading. Please wait.

Mercy Tab

version 2
version 2

Whole song

  • Not 100% the same as the song but sounds very similar and nice.
  • Strumming Pattern and Chords Match the Music Video.

Video

658 views 111 this week
no commentswrite comment
1 2 3 4 5
3 more votes to show rating
add to favorites
launch autoscroll
font size
0
reset
how to read this tab
guitar tuner
Autoscroll
slow
fast
+/-
esc
set tempo
stop
Help us to improve Ultimate-Guitar.com Take our survey!
×
Author
Difficulty
intermediate
About this tab version
Strumming Pattern and Chords Match the Music Video. Was this info helpful? Yes No
Artist: Shawn Mendes
Song: Mercy
Tabbed by AbeEscalera

Standard Tuning, No Capo


[Part 1] "You've got a hold of me
e|-----------------------------------|
B|-----------------------------------|
G|-7---7---7----7--7---7-6---6h7p----|
D|-9--9----9---9---7--7--7-----------| x4
A|-7-7----10-10----5-5---7--7--------|
E|-0---------------------5-5---------|


[Part 2] "Please have mercy on me
e|-----------------------------------|
B|-----------------------------------|
G|-7---7---7----7--7---7-6---6h7p----|
D|-9--9----9---9---7--7--7-----------| x4
A|-7-7----10-10----5-5---7--7--------|
E|-0---------------------5-5---------|


[Part 3] "I'd drive through the night
e|--------5--5--------|
B|-8------5--5--------|
G|-7---7--7--6--------|
D|-9---9--7--7--------| x4
A|-7--10--5--7--------|
E|-7---7-----5--------|


[Part 4] "Please have mercy on me
e|--------5--5--------|
B|-6------5--5--------|
G|-7---7--7--6--------|
D|-9---9--7--7--------| x6
A|-7--10--5--7--------|
E|-7---7-----5--------|


[Part 5] "Consuming all the air inside my lungs
e|--------5-5---------|
B|--------5-5---------|
G|--7--7--7-6---------|
D|--9--9--7-7---------| x4
A|-10--9--5-7---------|
E|--7--7----5---------|


[Part 4] "Please have mercy on me
e|--------5--5--------|
B|-6------5--5--------|
G|-7---7--7--6--------|
D|-9---9--7--7--------| x6
A|-7--10--5--7--------|
E|-7---7-----5--------|


[Part 1]
You've got a hold of me
Don't even know your power
I stand a hundred feet
But I fall when I'm around you

Show me an open door
Then you go and slam it on me
I can't take anymore
I'm saying baby

[Part 2]
Please have mercy on me
Take it easy on my heart
Even though you don't mean to hurt me
You keep tearing me apart
Would you please have mercy, mercy on my heart
Would you please have mercy, mercy on my heart

[Part 3]
I'd drive through the night
Just to be near you baby
Heart old and testified
Tell me that I'm not crazy

I'm not asking for a lot
Just that you're honest with me
My pride is all I got
I'm saying baby

[Part 4]
Please have mercy on me
Take it easy on my heart
Even though you don't mean to hurt me
You keep tearing me apart
Would you please have mercy on me
I'm a puppet on your strings
And even though you got good intentions
I need you to set me free
Would you please have mercy, mercy on my heart
Would you please have mercy, mercy on my heart

[Part 5]
Consuming all the air inside my lungs
Ripping all the skin from off my bones
I'm prepared to sacrifice my life
I would gladly do it twice
Consuming all the air inside my lungs
Ripping all the skin from off my bones
I'm prepared to sacrifice my life
I would gladly do it twice

[Part 4]
Oh, please have mercy on me
Take it easy on my heart
Even though you don't mean to hurt me
You keep tearing me apart
Would you please have mercy on me
I'm a puppet on your string
And even though you got good intentions
I need you to set me free
I'm begging you for mercy, mercy
I'm begging you, (on my heart) begging you please baby
I'm begging you for mercy, mercy
Oh, I'm begging you, (on my heart) I'm begging you, yeah

[Humming]
Suggest correction
Give kudos to tab author, rate the tab!
1 2 3 4 5
comments
print report bad tab
guest
You may want to rate the tab now too:
select rating
Wanna post a correction for this tab? Suggest correction