Oops, an error
Loading. Please wait.

Mercy tab

version 3
version 3

Whole song

  • Strumming Pattern and Chords Match the Music Video.
  • Acoustic fingerstyle arrangement for Mercy by Shawn Mendes by LetsPlayGuitar.

Video

889 views 24 this week
no commentswrite comment
1 2 3 4 5
3 more votes to show rating
add to favorites
×
Save as Personal and add changes to this tab that will be seen only by you. Learn more ›
×
You can save this tab as Personal to edit and correct it or add notes. All changes will be seen only by you. Learn more »
launch autoscroll
font size
0
reset
how to read this tab
guitar tuner
edit
Autoscroll
slow
fast
+/-
esc
set tempo
stop
Author
Difficulty
[Intro]
e|-------------------------------------|
B|-----3-------------------------------|
G|-2/4---2/4---2h4---------------------|
D|-----------------2/4-2---0h2/4---0h2-|
A|-----------------------2-------2-0---|
E|-0---------3-------------------------|

e|-------------------------------------------|
B|-----3-------------------------------------|
G|-2/4---2/4----2h4--------------------------|
D|------------------2/4-2---0h2/4---0h-------|
A|------------------------2-------2-0--------|
E|-0----------3------------------------------|

[Verse]
e|-------------------------------------------|
B|-------------------------------------------|
G|-------------------------------------------|
D|-----2/4-2-------0h2-2-----2-2-0-2-2/4-0---|
A|---2-----------2-------2-2-------0-------2-|
E|-0---------0-3-----------------------------|

e|-------------------------------------------|
B|-------------------------------------------|
G|-------------------------------------------|
D|-----2/4-2-------0h2-2-----2-2-0-2-2/4-0---|
A|---2-----------2-------2-2-------0-------2-|
E|-0---------0-3-----------------------------|

[Pre-Chorus]
e|----------------------------------------------------------------|
B|-3-0---3-----------3--------------------------------------------|
G|-0---2-0---0h2-2---4-4-4-2-2/4-2--------------------------------|
D|---------0-------4---------------2/4-2p0------------------------|
A|-------------------2-------0------------------------------------|
E|-0-----3--------------------------------------------------------|

e|-------------------------------------------------------------------------|
B|-3-----------3-----------3-------------5h7-5-3---------------------------|
G|-0-------0---0-----------4-4-4-2-4-4/7-----------------------------------|
D|-----2/4---0-----0h2-2---------------------------------------------------|
A|---2-----------0-------0-2-------0---------------------------------------|
E|-0-----------3-----------------------------------------------------------|

e|-0-----------0h2-0-0-----0-0-----------------------0h2-0-0-----0-0--------------|
B|-3-3-3-0-------------3-3-------3-3/7-5-5-3-3-0-------------3-3-------7/---5-----|
G|-0---------0-----------------2-------------------0-----------------2-(7)/-(6)---|
D|-2------------------------------------------------------------------------------|
A|-2-----------------2-------0-----0-----------------------2-------0--------------|
E|-0-------3-----------------------------0-------3--------------------------------|

e|-------0--------------------------------------------------------------|
B|---3h5-------3-3---7-7-7/5--7/-5--------------------------------------|
G|-------------------7--------------------------------------------------|
D|---------0------------------------------------------------------------|
A|-----------------2-----0----------------------------------------------|
E|-0---------3-------7--------------------------------------------------|

e|-------0---------------------------------------------------------------|
B|---3h5-------3-3---7-7-7/5---------------------------------------------|
G|-------------------7-------6h7-6---------------------------------------|
D|---------0-----------------------7-------------------------------------|
A|-----------------2-----0-----------------------------------------------|
E|-0---------3-------7---------------------------------------------------|

[Verse]
e|-----------------------------------------------------------------------------|
B|-----------------------------------------------------------------------------|
G|-----------------------------------------------------------------------------|
D|-----2/4-2-------0h2-2-----2-2-0-2-2/4-0-------------------------------------|
A|---2-----------2-------2-2-------0-------2-----------------------------------|
E|-0---------0-3---------------------------------------------------------------|

e|--------------------------------------------------|
B|--------------------------------------------------|
G|--------------------------------------------------|
D|-----2/4-2-------0h2-2-----2-2-0-2-2/4-0----------|
A|---2-----------2-------2-2-------0-------2--------|
E|-0---------0-3------------------------------------|

[Pre-Chorus]
e|--------------------------------------------------------------------------|
B|-3-0---3-----------3------------------------------------------------------|
G|-0---2-0---0h2-2---4-4-4-2-2/4-2------------------------------------------|
D|---------0-------4---------------2/4-2p0----------------------------------|
A|-------------------2-------0----------------------------------------------|
E|-0-----3------------------------------------------------------------------|

e|-------------------------------------------------------------------------|
B|-3-----------3-----------3-------------5h7-5-3---------------------------|
G|-0-------0---0-----------4-4-4-2-4-4/7-----------------------------------|
D|-----2/4---0-----0h2-2---------------------------------------------------|
A|---2-----------0-------0-2-------0---------------------------------------|
E|-0-----------3-----------------------------------------------------------|

e|-0-----------0h2-0-0-----0-0-----------------------0h2-0-0-----0-0------------|--------|
B|-3-3-3-0-------------3-3-------3-3/7-5-5-3-3-0-------------3-3-------7/---5---|--------|
G|-0---------0-----------------2-------------------0-----------------2-(7)/-----|--------|
D|-2----------------------------------------------------------------------------|--------|
A|-2-----------------2-------0-----0-----------------------2-------0------------|--------|
E|-0-------3-----------------------------0-------3------------------------------|--------|
       
e|-------------0h2-0-0-----0-0-----------------------0h2-0-0-----0-0-------------|
B|-5-3-3-0-------------3-3-------3-3/7-5-5-3-3-0-------------3-3-------7/---5----|
G|-----------0-----------------2-------------------0-----------------2-(7)/-(6)--|
D|-------------------------------------------------------------------------------|
A|-------------------2-------0-----0-----------------------2-------0-------------|
E|-0-------3-----------------------------0-------3-------------------------------|

e|-------0-------------------------|
B|---3h5-------3-3---7-7-7/5--7/-5-|
G|-------------------7-------------|
D|---------0-----------------------|
A|-----------------2-----0---------|
E|-0---------3-------7-------------|

e|-------0-----------------------------|
B|---3h5-------3-3---7-7-7-7/5---------|
G|-------------------7---------6h7-6---|
D|---------0-------------------------7-|
A|-----------------2-----0-------------|
E|-0---------3-------7-----------------|

[Bridge]
e|----------------------------------------------|
B|----------------------------------------------|
G|----------------------------------------------|
D|---4/-2---4-----2---4-----2---4-----2---4-----|
A|----------------------------------------------|
E|-0-0----0---0-0---3---3-3---3---3-3---3---3-3-|

e|----------------------------------------------|
B|----------------------------------------------|
G|----------------------------------------------|
D|---4/-2---4-----2---4-----2---4-----2---4-----|
A|----------------------------------------------|
E|-0-0----0---0-0---3---3-3---3---3-3---3---3-3-|

e|-------------------------------------------------|
B|-------------------------------------------------|
G|-------------------------------------------------|
D|---4/----2---4-----2---4-----2---4-----2---4-----|
A|-------------------------------------------------|
E|-0---0-0---0---0-0---3---3-3---3---3-3---3---3-3-|

e|----------------------------------|
B|----------------------------------|
G|----------------------------------|
D|----------------------------------|
A|-4-----4-4-----4--4-2-------------|
E|-0/-0--0-0--0--0--3-3-3-3-3-3-3-3-|

e|------------------2----0-2----0-2---0-2---2-2-2--2---0-2---0-2---0-|
B|------------------0------0------0-----0---0-0-0--3-----3-----2-----|
G|------------------0------0------0-----0---0-0-0--4-----4-----2-----|
D|------------------(2)----(2)----0-----0---0-0-0--4-----4-----2-----|
A|------------------(2)----(2)-----------------------2-----2-----2---|
E|-x------x-----x------0------0-----3-----3--------------------------|

e|-2---0-2---(2)2---0-2---0-2---0-2---0-2-----0-2-2-2-2---|----------0---------------|
B|-2-----2---(2)0-----0-----0-----0-----0---3---3---3-----|--3p2p0h3-----------------|
G|-2-----2---(2)0-----0-----0-----0-----0---0---4---4-----|------------11/-10/12/10--|
D|-2-----2------------------0-----0-----0-------4---4-----|------------13/-----------|
A|---2-----2----------------------------------------------|--------------------------|
E|-0--------------0-----0-----3-----3-----3---------------|--------------------------|

[Post-Chorus]
       o.    o. o.        o.  o.    o. o.         o.  o.  o. o.        o.  o       o                
e|-0-------------0h2-0----0-----0---0-------------------------0h2-0------0-----0-----0----------|
B|-3-3-3-0-----------0------3-3---------3-3/7-5---5-3-3-0---------0--------3-3-----------7/---5-|
G|-0-----------0-----0----------------2-----------0---------0-----0--------------------2-(7)/---|
D|-2--------------------------------------------------------------------------------------------|
A|-2-----x-----------x----2-------x-0-----0-------------x---------x------2---x-------0----------|
E|-0-----x---3-------x------------x-------x-------0-----x-3-------x----------x------------------|
   o.  o.    o. o.          o.  o.  o.  o         o.  o.  o. o.          o.  o.      o  o            
e|---------------0h2-0------0-----0-0-------------------------0h2-0------0-----0-----0---------|
B|-5-3-3-0-----------0--------3-3-------3-3/7-5---5-3-3-0---------0--------3-3-----------0-3-0-|
G|-------------0-----0----------------2-----------0---------0-----0--------------------2-------|
D|---------------------------------------------------------------------------------------------|
A|-------x-----------x------2-----x-0-----0-x-----------x---------x------2--------x--0-----x---|
E|-0-----x---3-------x------------x---------x-----0-----x-3-------x---------------x--------x---|
   o              o.                         o   
e|---------0-----------------5-2-2-5---2-2---2p0--------------|
B|---3/5-------------3-3----------------------------7/---5----|
G|--------------------------------------------------(7)/-(6)--|
D|-------------0---------------------------------x------------|
A|---x-------x-------x-x-2---x---x---x-----0-----x-------x----|
E|-0-x-------x----3--x-x-----x---x---x-----------x-------x----|
   o.             o.    
e|---------0-----------------5-5-2---2---2/3p2p0----0h2-0----|
B|---3/5-------------3-3--------------------------3-----0----|
G|------------------------------------------------------0----|
D|-------------0---------------------------------------------|
A|---x-------x-------x-x-2---x-----x---0----------x-----x----|
E|-0-x-------x----3--x-x-----x-----x--------------x-----x----|

[Outro]
e|---------------------------------------|
B|-------3-------------------------------|
G|---2/4---2/4---2h4---------------------|
D|-------------------2/4-2---0h2/4---0h2-|
A|-------------------------2-------2-0---|
E|-0-----------3-------------------------|



************************************

| h    Hammer-on
| /    Slide up
| p    Pull-off
| (n)  Ghost note
| x    Dead note
 

************************************
Suggest correction
Creating personal tab
Creating personal tab
You can edit any tab online and save it as your Personal.

You can edit, replace or remove any tab part or add personal notes – all changes will be seen only by you.

Personal tabs can be accessed anytime from any device, even offline.
Learn more »
Give kudos to tab author, rate the tab!
1 2 3 4 5
comments
print report bad tab
guest
You may want to rate the tab now too:
select rating
Wanna post a correction for this tab? Suggest correction