Oops, an error
Loading. Please wait.

Patience Tab

version 1
version 1

Whole song

  • Capo 2 version which makes it easier to play (and ... Show more

Video

1,708 views 99 this week
no commentswrite comment
1 2 3 4 5
x 6
add to favorites
launch autoscroll
font size
0
reset
how to read this tab
guitar tuner
Autoscroll
slow
fast
+/-
esc
set tempo
stop
Help us to improve Ultimate-Guitar.com Take our survey!
×
Author
Difficulty
Capo
novice
3rd fret
------------------------------------------------------------------
   VIDEO LESSON - https://www.youtube.com/watch?v=on1Sjl0Qdi4
------------------------------------------------------------------

--------------------------------------
          CAPO ON 3RD FRET
--------------------------------------

[Main Riff]

   C       F         Am      G 
e|---0-x-0-----x---|-----x-------x---|
B|---1-x-1---1-x-1-|---1-x-1---0-x-0-|
G|-----x-----0-x-0-|---2-x-2---0-x-0-|
D|-----x-------x---|-----x-------x---|
A|-3---x-------x---|-0---x-------x---|
E|-----x---1---x---|-----x---3---x---|
 
   1 + 2 + 3 + 4 +   1 + 2 + 3 + 4 +


[Bridge]

   F                 G 
e|-----x-------x---|-----x-------x---|
B|---1-x-1---1-x-1-|---0-x-0---0-x-0-|
G|---2-x-2---2-x-2-|---0-x-0---0-x-0-|
D|-----x-------x---|-----x-------x---|  x2
A|-----x-------x---|-----x-------x---|
E|-1---x---1---x---|-3---x---3---x---|
 
   1 + 2 + 3 + 4 +   1 + 2 + 3 + 4 +

   Am                G 
e|-----x-------x---|-----------------|
B|---1-x-1---1-x-1-|-----------------|
G|---2-x-2---2-x-2-|-----------------|
D|-----x-------x---|-----------------|
A|-0---x---0---x---|-----------------|
E|-----x-------x---|-3---------------|
 
   1 + 2 + 3 + 4 +   1 + 2 + 3 + 4 +


[Soft Chorus]
   C     F           Am    G
e|-----------------|-----------------|
B|-1---------------|-1-----0---------|
G|-0-----2---------|-2-----0---------|
D|-------3---------|-----------------|  
A|-3---------------|-0---------------|
E|-------1---------|-------3---------|
 
   1 + 2 + 3 + 4 +   1 + 2 + 3 + 4 +
Suggest correction
comments
print report bad tab
guest
You may want to rate the tab now too:
select rating
Wanna post a correction for this tab? Suggest correction