Oops, an error
Loading. Please wait.

Patience Tab

version 2
version 2

Whole song

  • Capo 2 version which makes it easier to play (and ... Show more

Video

181 views 9 this week
no commentswrite comment
1 2 3 4 5
2 more votes to show rating
add to favorites
launch autoscroll
font size
0
reset
how to read this tab
guitar tuner
Autoscroll
slow
fast
+/-
esc
set tempo
stop
Help us to improve Ultimate-Guitar.com Take our survey!
×
About this tab version
Capo 2 version which makes it easier to play (and probably the way Shawn plays it). Was this info helpful? Yes No
Patience – Shawn Mendes

Capo 2

[Intro, Verse and Chorus]

  D        Gadd9   Bm     A
 
e|-------------------------------|
B|----3--3---3--3---3--3---2--2--|
G|----2--2---2--2---2--2---2--2--|
D|-0-----------------------------|
A|--------0------0-2---2--0------|
E|----------3--------------------|


[Bridge]

Gadd9 Gadd9  A  A  Gadd9  Gadd9  A  A  Bm  Bm   A

  G add9      A           Bm
e|-------|   |-------|   |-------|
B|---3-3-|   |---2-2-|   |---3-3-|
G|---2-2-|   |---2-2-|   |---2-2-|
D|-------|   |-------|   |-------|
A|-------|   |-0-----|   |-2-----|
E|-3-----|   |-------|   |-------|


__________________________________
Requested by Catherine and Melissa
Suggest correction
Give kudos to tab author, rate the tab!
1 2 3 4 5
comments
print report bad tab
guest
You may want to rate the tab now too:
select rating
Wanna post a correction for this tab? Suggest correction