Oops, an error
Loading. Please wait.

Ruin Tab

version 1
version 1

Intro

304 views 24 this week
no commentswrite comment
1 2 3 4 5
x 3
add to favorites
launch autoscroll
font size
0
reset
how to read this tab
guitar tuner
Autoscroll
slow
fast
+/-
esc
set tempo
stop
Help us to improve Ultimate-Guitar.com Take our survey!
×
Author
Difficulty
intermediate
[Intro]

e|----------------------------------------------------------------------------|
B|---7h8p7h8p7h8p7------------------------------------------------------------|
G|---7------------------------------------------------------------------------|x4
D|---7h9p7h9p7h9p7------------------------------------------------------------|
A|----------------------------------------------------------------------------|
E|----------------------------------------------------------------------------|

[Verse]

e|----------------------------------------------------------------------------|
B|---7h8p7h8p7h8p7------------------------------------------------------------|
G|---7------------------------------------------------------------------------|
D|---7h9p7h9p7h9p7------------------------------------------------------------|
A|----------------------------------------------------------------------------|
E|----------------------------------------------------------------------------|
 for all of the verse(s)

for the chorus play A&G in an E form and Bm in Em form. 
It just sounds better to me at least

[Chorus]

A            Bm    G
And I'm not tryna ruin your happiness,
A             Bm                               G
But darling, don't you know that I'm the only one for ya?
A           Bm      G
And I'm not tryna ruin your happiness, baby,
A             Bm                              G
But darling, don't you know that I'm the only one?

[Bridge]

D 
Do I ever cross your mind?
G
Do I ever cross your mind?
D
Do I ever cross your mind?
G
Do I ever cross your mind?

Whoa oh oh



************************************
| h   Hammer-on
| p   Pull-off
************************************
Suggest correction
Give kudos to tab author, rate the tab!
1 2 3 4 5
comments
print report bad tab
guest
You may want to rate the tab now too:
select rating
Wanna post a correction for this tab? Suggest correction