Oops, an error
Loading. Please wait.
We have Chord Pro version of Stitches.
It's the closest thing you can get to the original song and it has interactive parts. Check out the tab »
×

Stitches bass

version 1
version 1

Whole song

  • This version is to accompany a youtube video for i... Show more

Interactive

10,804 views 78 this week
4 commentsread comments
1 2 3 4 5
x 10
add to favorites
×
Save as Personal and add changes to this tab that will be seen only by you. Learn more ›
×
You can save this tab as Personal to edit and correct it or add notes. All changes will be seen only by you. Learn more »
launch autoscroll
font size
0
reset
guitar tuner
edit
Autoscroll
slow
fast
+/-
esc
set tempo
stop
-------------------------------------------------------------------------------
                             Stitches - Shawn Mendes (Bass)
-------------------------------------------------------------------------------
Tabbed by: Chermel Porter
youtube.com/CHERMEL

Tuning:standard

Bass plays during pre chorus and chorus only but you can lightly play during the 2nd verse


[Pre-Chorus]

(Hit once let it ring)
G|---------------------------------------------------------------------------|
D|---------------------------------------------------------------------------|
A|-1-------------4-----------------------------------------------------------|
E|-------4----------------2--------------------------------------------------|


[Chorus]

G|-----------------------------------------------------------------------------------------------------|
D|-----------------------------------------------------------------------------------------------------|
A|-1--------1-1-1---------------------------------3h4-----4-4-4-4-------------------------4h3----------|
E|-----------------------4-4-4-4----------------------------------------------2-2-2-2------------------|


[Verse 2] 

(lightly)
G|-----------------------------------------------------------------------------------------------------|
D|-----------------------------------------------------------------------------------------------------|
A|--1-1-1-1------------------------------4-4-4-4-------------------------------------------------------|
E|--------------------4-4--------4-4---------------------2--------2-2-2--------------------------------|


(repeat chorus)

[Bridge] 
(same as 2nd verse)

[Chorus] 
(until the end of the song)


************************************

| h  Hammer-on

************************************

            
            
Suggest correction
Creating personal tab
Creating personal tab
You can edit any tab online and save it as your Personal.

You can edit, replace or remove any tab part or add personal notes – all changes will be seen only by you.

Personal tabs can be accessed anytime from any device, even offline.
Learn more »
comments
print report bad tab
4 comments total. Showing first comments.
0 reply
rhyscolbourne2 103 Jan 05, 2017 12:59 PM

Quick thing, while I dont think this tab is good there is something I can help you with when you do 4h3 it would actually be a p as you're pulling off not hammering on.

0 reply
kadz125 10 May 21, 2017 07:42 AM

I used this tab as a guide really, but eventually I made it up based on these notes....

guest
You may want to rate the tab now too:
select rating
Wanna post a correction for this tab? Suggest correction