Oops, an error
Loading. Please wait.
We have Chord Pro version of Stitches.
It's the closest thing you can get to the original song and it has interactive parts. Check out the tab »
×

Stitches chords

version 11
version 11

Whole song

Interactive

Video

9,193 views 12 this week
1 commentread comment
1 2 3 4 5
x 31
add to favorites
×
Save as Personal and add changes to this tab that will be seen only by you. Learn more ›
×
You can save this tab as Personal to edit and correct it or add notes. All changes will be seen only by you. Learn more »
launch autoscroll
font size
0
reset
transpose
0
reset
display chords
guitar tuner
edit
Autoscroll
slow
fast
+/-
esc
set tempo
stop
About this tab version
I figure ut the picking and strumming part. there is no version like this. Was this info helpful? Yes No
Strumming
There is no strumming pattern for this song yet. and get +5 IQ
Hi im Christian from "Christians How To Plays". I am provide Guitar Tutorials on Youtube.
To look how i play the strumming and picking parts please visit my video lessons of the 
song on Youtube :
--> https://www.youtube.com/watch?v=OcfX-oeVZs0
Now, have fun with the Song:

Artist: Shawn Mendes
Song: Stitches
Capo 1

[Intro]    Am   |G    |C    |F    ||

[Intro/verse Picking]

    Am                      G                       C                       F
     E  Q    Q    Q    E     E  Q    Q    Q    E     E  Q    Q    Q    E     E  Q    Q    Q    E
e|----------0----0----0--|----------3----3----3--|----------0----0----0--|-----------------------|
B|-----1----1----1----1--|-----0----0----0----0--|-----1----1----1----1--|----------1----1----1--|
G|-----2-----------------|-----0-----------------|-----0-----------------|-----2----2----2----2--|
D|-----------------------|-----------------------|-----------------------|-----3-----------------|
A|--0--------------------|-----------------------|--3--------------------|-----------------------|
E|-----------------------|--3--------------------|-----------------------|--1--------------------|

[Verse 1]

Am              G                  C     F
 I thought that I've been hurt before
     Am             G                  C    F
 But no one's ever left me quite this sore
Am               G              C     F
 Your words cut deeper than a knife
        Am               G                 C     F
 Now I need someone to breathe me back to life

F                        G         Am
 Got a feeling that I'm going under but I know that I'll make it out alive
F                   G          Am        N.C.
 If I quit calling you my lover, move on


[Chorus]

                Am                        G              C                    F
 You watch me bleed until I can't breathe, I'm shaking, falling onto my knees
              Am                G      F                 C
 And now that I'm without your kisses, I'll be needing stitches
   Am                 G         C                       F
 Tripping over myself, aching, begging you to come help
              Am                G     F                 C
 And now that I'm without your kisses I'll be needing stitches


[Chorus Strumming]

    ^       v    v     v     ^       v    v     v     ^       v    v     v     ^       v    v     v
    Q    E  Q    E  E  E     Q    E  Q    E  E  E     Q    E  Q    E  E  E     Q    E  Q    E  E  E
e|--0----x--0----0--x--0--|--3----x--3----3--x--3--|--0----x--0----0--x--0--|--1----x--1----1--x--1--|
B|--1----x--1----1--x--1--|--0----x--0----0--x--0--|--1----x--1----1--x--1--|--1----x--1----1--x--1--|
G|--2----x--2----2--x--2--|--0----x--0----0--x--0--|--0----x--0----0--x--0--|--2----x--2----2--x--2--|
D|--2----x--2----2--x--2--|--0----x--0----0--x--0--|--2----x--2----2--x--2--|--3----x--3----3--x--3--|
A|--0----x--0----0--x--0--|--2----x--2----2--x--2--|--3----x--3----3--x--3--|--3----x--3----3--x--3--|
E|-------x----------x-----|--3----x--3----3--x--3--|-------x----------x-----|--1----x--1----1--x--1--|


[Verse 2]

Am            G                C    F
 Just like a moth drawn to a flame
         Am              G                  C   F
 Oh, you lured me in, I couldn't sense the pain
Am            G                 C    F
 Your bitter heart cold to the touch
               Am             G                 C            F
 Now I'm gonna reap what I sow I'm left seeing red on my own

F                        G         Am
 Got a feeling that I'm going under but I know that I'll make it out alive
F                   G          Am        N.C.
 If I quit calling you my lover, move on


[Chorus]

                Am                        G              C                    F
 You watch me bleed until I can't breathe, I'm shaking, falling onto my knees
              Am                G      F                 C
 And now that I'm without your kisses, I'll be needing stitches
   Am                 G         C                       F
 Tripping over myself, aching, begging you to come help
              Am                G     F                 C
 And now that I'm without your kisses I'll be needing stitches


[Interlude]    Am   |G    |C    |F    ||

[Interlude Strumming]

          PM          PM             PM          PM             PM          PM       PM          PM      
    E  E  E  E  E  E  E  E     E  E  E  E  E  E  E  E     E  E  E  E  E  E  E  E     E  E  E  E  E  E  E  E
e|--------x-----------x-----|--------x-----------x-----|--------x-----------x-----|--------x-----------x-----|
B|--1--1--1--1--1--1--1--1--|--------x-----------x-----|--1--1--1--1--1--1--1--1--|--------x-----------x-----|
G|--2--2--2--2--2--2--2--2--|--0--0--0--0--0--0--0--0--|--0--0--0--0--0--0--0--0--|--2--2--2--2--2--2--2--2--|
D|--2--2--2--2--2--2--2--2--|--0--0--0--0--0--0--0--0--|--2--2--2--2--2--2--2--2--|--3--3--3--3--3--3--3--3--|
A|--0--0--0--0--0--0--0--0--|--2--2--2--2--2--2--2--2--|--3--3--3--3--3--3--3--3--|--3--3--3--3--3--3--3--3--|
E|--------x-----------x-----|--3--3--3--3--3--3--3--3--|--------x-----------x-----|--1--1--1--1--1--1--1--1--|


[Bridge]

  Am                           G
 Needle and the thread, gotta get you out of my head
  C                            F
 Needle and the thread, gonna wind up dead
  Am                           G
 Needle and the thread, gotta get you out of my head
  C                            F
 Needle and the thread, gonna wind up dead
  Am                           G
 Needle and the thread, gotta get you out of my head
  C                            F
 Needle and the thread, gonna wind up dead

  Am                           G                       C                    N.C.
 Needle and the thread, gotta get you out of my head, get you out of my head


[Chorus]

                Am                        G              C                    F
 You watch me bleed until I can't breathe, I'm shaking, falling onto my knees
              Am                G      F                 C
 And now that I'm without your kisses, I'll be needing stitches
   Am                 G         C                       F
 Tripping over myself, aching, begging you to come help
              Am                G     F                 C
 And now that I'm without your kisses I'll be needing stitches (and now that)

 N.C.
 I'm without your kisses I'll be needing stitches (and now that)

 I'm without your kisses I'll be needing stitches

END
Suggest correction
Creating personal tab
Creating personal tab
You can edit any tab online and save it as your Personal.

You can edit, replace or remove any tab part or add personal notes – all changes will be seen only by you.

Personal tabs can be accessed anytime from any device, even offline.
Learn more »
comments
print report bad tab
1 comment total.
0 reply
ChristiansHowTo 341 Feb 12, 2016 11:21 PM

Thx for the rating :)

guest
You may want to rate the tab now too:
select rating
Wanna post a correction for this tab? Suggest correction