Oops, an error
Loading. Please wait.
We have Chord Pro version of Stitches.
It's the closest thing you can get to the original song and it has interactive parts. Check out the tab »
×
14,881 views 63 this week
1 commentread comment
1 2 3 4 5
x 9
add to favorites
×
Save as Personal and add changes to this tab that will be seen only by you. Learn more ›
×
You can save this tab as Personal to edit and correct it or add notes. All changes will be seen only by you. Learn more »
launch autoscroll
font size
0
reset
how to read this tab
guitar tuner
edit
Autoscroll
slow
fast
+/-
esc
set tempo
stop
Capo: 1

This is basically just the intro and Pre-chorus becasue that's the only tab in the song, the rest is the 
chords 
tabbed by L,M


[Intro]

Basically Am G C F but finger picking, and it's easier to bar the F 

    Am               G                 C                 F                  
e|----0---0---0---0-----------------------0---0---0---0----------------------| 
B|----1---1---1---1-----3---3---3---3-----1---1---1---1------1---1---1---1---|
G|----------------------0---0---0---0------------------------2---2---2---2---|
D|---------------------------------------------------------------------------|
A|--0------------------------------------3-----------------------------------|
E|--------------------3-------------------------------------1----------------|       

    Am               G                 C                 F                  
e|----0---0---0---0-----------------------0---0---0---0----------------------| 
B|----1---1---1---1-----3---3---3---3-----1---1---1---1------1---1---1---1---|
G|----------------------0---0---0---0------------------------2---2---2---2---|
D|---------------------------------------------------------------------------|
A|--0------------------------------------3-----------------------------------|
E|--------------------3-------------------------------------1----------------|
    Am               G                 C                 F                  
e|----0---0---0---0-----------------------0---0---0---0----------------------| 
B|----1---1---1---1-----3---3---3---3-----1---1---1---1------1---1---1---1---|
G|----------------------0---0---0---0------------------------2---2---2---2---|
D|---------------------------------------------------------------------------|
A|--0------------------------------------3-----------------------------------|
E|--------------------3-------------------------------------1----------------|

    Am               G                 C                 F                  
e|----0---0---0---0-----------------------0---0---0---0----------------------| 
B|----1---1---1---1-----3---3---3---3-----1---1---1---1------1---1---1---1---|
G|----------------------0---0---0---0------------------------2---2---2---2---|
D|---------------------------------------------------------------------------|
A|--0------------------------------------3-----------------------------------|
E|--------------------3-------------------------------------1----------------|


[Pre-Chorus]

   F                 G                 C
e|----------------------------------------0---0---0---0---0---0---0---0------|
B|---1---1---1---1------------------------1---1---1---1---1---1---1---1------|
G|---2---2---2---2-----3---3---3---3-----------------------------------------|
D|---------------------0---0---0---0-----------------------------------------|
A|--------------------------------------3---3---3---3---3---3---3---3--------|
E|-1---1---1---1-----3---3---3---3-------------------------------------------|


[Chorus]

              Am                   G
You watch me bleed until I can't breathe
           C                    F
I'm shaking, falling onto my knees
             Am                 G
And now that I'm without your kisses
 F                 C
I'll be needing stitches
       Am           G
I'm tripping over myself,
             C                   F
I'm aching begging you to come help
       Am                      G
And now that I'm without your kisses
   F                C
I'll be needing stitches
 

[Verse 2]

  Am         G               C     F
Just like a moth drawn to a flame
          Am             G                 C          F
Oh, you lured me in, I couldn't sense the pain
 Am           G                C           F
Your bitter heart cold to the touch
               Am          G
Now I'm gonna reap what I sow
                C            F
I'm left seeing red on my own


[Pre-Chorus]

 F                       G 
Got a feeling that I'm going under
 Am
But I know that I'll make it out alive
 F                G
If I quit calling you my lover
Am
Move on


[Chorus]

              Am                   G
You watch me bleed until I can't breathe
           C                    F
I'm shaking, falling onto my knees
             Am                 G
And now that I'm without your kisses
 F                 C
I'll be needing stitches
       Am           G
I'm tripping over myself,
             C                   F
I'm aching begging you to come help
       Am                      G
And now that I'm without your kisses
        F              C
I'll be needing stitches
 

[Bridge]

 Am             
Needle and the thread,
       G                  
Gotta get you out of my head
 C              
Needle and the thread,
       F         
Gonna wind up dead    (X3)


 

            
            
Suggest correction
Creating personal tab
Creating personal tab
You can edit any tab online and save it as your Personal.

You can edit, replace or remove any tab part or add personal notes – all changes will be seen only by you.

Personal tabs can be accessed anytime from any device, even offline.
Learn more »
comments
print report bad tab
1 comment total.
+2 reply
Davidsson 10 Feb 26, 2016 02:06 AM

In the pre-chorus, I think G is wrong.just saying

guest
You may want to rate the tab now too:
select rating
Wanna post a correction for this tab? Suggest correction