Oops, an error
Loading. Please wait.
We have Chord Pro version of Stitches.
It's the closest thing you can get to the original song and it has interactive parts. Check out the tab »
×

Stitches Acoustic chords

version 8
version 8

Whole song

Interactive

Video

10,939 views 54 this week
no commentswrite comment
1 2 3 4 5
x 10
add to favorites
×
Save as Personal and add changes to this tab that will be seen only by you. Learn more ›
×
You can save this tab as Personal to edit and correct it or add notes. All changes will be seen only by you. Learn more »
launch autoscroll
font size
0
reset
transpose
0
reset
display chords
guitar tuner
edit
Autoscroll
slow
fast
+/-
esc
set tempo
stop
Strumming Are these strumming patterns correct? Yes No
Verse 150 bpm
1
&
2
&
3
&
4
&
Listen
Chorus 150 bpm
1
&
2
&
3
&
4
&
Listen
Bridge 150 bpm
1
&
2
&
3
&
4
&
Listen
Artist : Shawn Mendes
Song : Stitches
Tabbed by : Dave Tran
instagram : davetran
email : davetran01@gmail.com
Tuning Standard
Key : Bb Minor

----------------
CAPO ON 1st FRET
----------------

-------------------------------------------------------------------------
VIDEO LESSON FOR THIS SONG - https://www.youtube.com/watch?v=6pN3QqdQ9QU
-------------------------------------------------------------------------


[1st Verse/Intro - All notes relative to Capo]

   Am                G                 C                 F
e|---0---0---0---0-|-----------------|---0---0---0---0-|-----------------|
B|---1---1---1---1-|---3---3---3---3-|---1---1---1---1-|---1---1---1---1-|
G|-----------------|---0---0---0---0-|-----------------|---2---2---2---2-|
D|-----------------|-----------------|-----------------|-----------------|
A|-0---------------|-----------------|-3---------------|-----------------|
E|-----------------|-3---------------|-----------------|-1---------------|   
   1 + 2 + 3 + 4 +   1 + 2 + 3 + 4 +   1 + 2 + 3 + 4 +   1 + 2 + 3 + 4 + 


[Prechorus - All notes relative to Capo]

   F                 G                 Am                Am
e|-----------------|-----------------|---0---0---0---0-|---0---0---0---0-|
B|---1---1---1---1-|---3---3---3---3-|---1---1---1---1-|---1---1---1---1-|
G|---2---2---2---2-|---0---0---0---0-|-----------------|-----------------|
D|-----------------|-----------------|-----------------|-----------------|
A|-----------------|-----------------|-0---------------|-0---------------|
E|-1---------------|-3---------------|-----------------|-----------------|   
   1 + 2 + 3 + 4 +   1 + 2 + 3 + 4 +   1 + 2 + 3 + 4 +   1 + 2 + 3 + 4 + 

   F                 G                 Am                G
e|-----------------|-----------------|---0---0---0---0-|-----------------|
B|---1---1---1---1-|---3---3---3---3-|---1---1---1---1-|---3---3---3---3-|
G|---2---2---2---2-|---0---0---0---0-|-----------------|---0---0---0---0-|
D|-----------------|-----------------|-----------------|-----------------|
A|-----------------|-----------------|-0---------------|-0---------------|
E|-1---------------|-3---------------|-----------------|-3---------------|   
   1 + 2 + 3 + 4 +   1 + 2 + 3 + 4 +   1 + 2 + 3 + 4 +   1 + 2 + 3 + 4 + 


[Chorus - All notes relative to Capo]

   Am                G                 C                 F
e|-0-0-x-0-0-0-x-0-|-3-3-x-3-3-3-x-3-|-0-0-x-0-0-0-x-0-|-1-1-x-1-1-1-x-1-|
B|-1-1-x-1-1-1-x-1-|-3-3-x-3-3-3-x-3-|-1-1-x-1-1-1-x-1-|-1-1-x-1-1-1-x-1-|
G|-2-2-x-2-2-2-x-2-|-0-0-x-0-0-0-x-0-|-0-0-x-0-0-0-x-0-|-2-2-x-2-2-2-x-2-|
D|-2-2-x-2-2-2-x-2-|-0-0-x-0-0-0-x-0-|-2-2-x-2-2-2-x-2-|-3-3-x-3-3-3-x-3-|
A|-0-0-x-0-0-0-x-0-|-2-2-x-2-2-2-x-2-|-3-3-x-3-3-3-x-3-|-3-3-x-3-3-3-x-3-|
E|-----------------|-3-3-x-3-3-3-x-3-|-----------------|-1-1-x-1-1-1-x-1-|   
   1 + 2 + 3 + 4 +   1 + 2 + 3 + 4 +   1 + 2 + 3 + 4 +   1 + 2 + 3 + 4 + 

   Am                G                 F                 C
e|-0-0-x-0-0-0-x-0-|-3-3-x-3-3-3-x-3-|-1-1-x-1-1-1-x-1-|-0-0-x-0-0-0-x-0-|
B|-1-1-x-1-1-1-x-1-|-3-3-x-3-3-3-x-3-|-1-1-x-1-1-1-x-1-|-1-1-x-1-1-1-x-1-|
G|-2-2-x-2-2-2-x-2-|-0-0-x-0-0-0-x-0-|-2-2-x-2-2-2-x-2-|-2-2-x-2-2-2-x-2-|
D|-2-2-x-2-2-2-x-2-|-0-0-x-0-0-0-x-0-|-3-3-x-3-3-3-x-3-|-2-2-x-2-2-2-x-2-|
A|-0-0-x-0-0-0-x-0-|-2-2-x-2-2-2-x-2-|-3-3-x-3-3-3-x-3-|-3-3-x-3-3-3-x-3-|
E|-----------------|-3-3-x-3-3-3-x-3-|-1-1-x-1-1-1-x-1-|-----------------|   
   1 + 2 + 3 + 4 +   1 + 2 + 3 + 4 +   1 + 2 + 3 + 4 +   1 + 2 + 3 + 4 + 


[2nd Verse/Bridge - All notes relative to Capo *PALM MUTED*]

   Am                G                 C                 F
e|-----------------|-----------------|-----------------|-----------------|
B|-----------------|-----------------|-----------------|-----------------|
G|-2-2---2-2-2---2-|-0-0---0-0-0---0-|-0-0---0-0-0---0-|-2-2---2-2-2---2-|
D|-2-2---2-2-2---2-|-0-0---0-0-0---0-|-2-2---2-2-2---2-|-3-3---3-3-3---3-|
A|-0-0---0-0-0---0-|-2-2---2-2-2---2-|-3-3---3-3-3---3-|-3-3---3-3-3---3-|
E|-----------------|-3-3---3-3-3---3-|-----------------|-1-1---1-1-1---1-|   
   1 + 2 + 3 + 4 +   1 + 2 + 3 + 4 +   1 + 2 + 3 + 4 +   1 + 2 + 3 + 4 + 


[2nd Prechorus- All notes relative to Capo *PALM MUTED*]

   F                G                 Am                 Am
e|-----------------|-----------------|-----------------|-----------------|
B|-----------------|-----------------|-----------------|-----------------|
G|-2-2---2-2-2---2-|-0-0---0-0-0---0-|-2-2---2-2-2---2-|-2-2---2-2-2---2-|
D|-3-3---3-3-3---3-|-0-0---0-0-0---0-|-2-2---2-2-2---2-|-2-2---2-2-2---2-|
A|-3-3---3-3-3---3-|-2-2---2-2-2---2-|-0-0---0-0-0---0-|-0-0---0-0-0---0-|
E|-1-1---1-1-1---1-|-3-3---3-3-3---3-|-----------------|-----------------|   
   1 + 2 + 3 + 4 +   1 + 2 + 3 + 4 +   1 + 2 + 3 + 4 +   1 + 2 + 3 + 4 + 

   F                G                 Am                 Am
e|-----------------|-----------------|-----------------|-----------------|
B|-----------------|-----------------|-----------------|-----------------|
G|-2-2---2-2-2---2-|-0-0---0-0-0---0-|-2-2---2-2-2---2-|-0-0---0-0-0---0-|
D|-3-3---3-3-3---3-|-0-0---0-0-0---0-|-2-2---2-2-2---2-|-0-0---0-0-0---0-|
A|-3-3---3-3-3---3-|-2-2---2-2-2---2-|-0-0---0-0-0---0-|-2-2---2-2-2---2-|
E|-1-1---1-1-1---1-|-3-3---3-3-3---3-|-----------------|-3-3---3-3-3---3-|
   1 + 2 + 3 + 4 +   1 + 2 + 3 + 4 +   1 + 2 + 3 + 4 +   1 + 2 + 3 + 4 + 


[Verse 1]

Am              G                C    F
  I thought that I've been hurt before
    Am            G                  C    F
But no one's ever left me quite this sore
Am               G              C    F
  Your words cut deeper than a knife
      Am              G                  C     F
Now I need someone to breathe me back to life


[Pre-Chorus]

F                        G           Am
  Got a feeling that I'm going under
                     Am
But I know that I'll make it out alive
F                   G             Am
  If I quit calling you my lover
          G 
And move on


[Chorus]

             Am                        G
You watch me bleed until I can't breathe
             C                   F
I'm shaking, falling onto my knees
             Am               G
And now that I'm without your kisses
F               C
I'll be needing stitches
Am                  G
Tripping over myself, Aching,
C                      F
Begging you to come help
             Am               G
And now that I'm without your kisses
F               C
I'll be needing stitches


[Verse 2]

Am           G               C    F
 Just like a moth drawn to a flame
        Am            G                  C    G
Oh, you lured me in I couldn't sense the pain
Am            G                 C     F
  Your bitter heart cold to the touch
              Am              G              
Now I'm gonna reap what I sow
                C         F
I'm left seeing red on my own


[Pre-Chorus]

F                        G           Am
  Got a feeling that I'm going under
                     Am
But I know that I'll make it out alive
F                   G             Am
  If I quit calling you my lover
          G 
And move on


[Chorus]
 
             Am                        G
You watch me bleed until I can't breathe
             C                   F
I'm shaking, falling onto my knees
             Am               G
And now that I'm without your kisses
F               C
I'll be needing stitches
Am                  G
Tripping over myself, Aching,
C                      F
Begging you to come help
             Am               G
And now that I'm without your kisses
F               C
I'll be needing stitches


[Bridge]

Am G C F
Am G C F

Am         
Needle and the thread,
      G
Gotta get you out of my head
C
Needle and the thread,
      F
Gonna wind up dead
Am         
Needle and the thread,
      G
Gotta get you out of my head
C
Needle and the thread,
      F
Gonna wind up dead

Am         
Needle and the thread,
      G
Gotta get you out of my head
C
Needle and the thread,
      F
Gonna wind up dead
Am
Needle and the thread,
      G             
Gotta get you out of my head
C                   G
Get you out of my head


[Chorus]

             Am                        G
You watch me bleed until I can't breathe
             C                   F
I'm shaking, falling onto my knees
             Am               G
And now that I'm without your kisses
F               C
I'll be needing stitches
Am                  G
Tripping over myself, Aching,
C                      F
Begging you to come help
             Am               G
And now that I'm without your kisses
F               C
I'll be needing stitches


[Outro]

             Am               G
And now that I'm without your kisses
F               C
I'll be needing stitches
             Am               G
And now that I'm without your kisses
F               C
I'll be needing stitches


-------------------------------------------------------------------------
VIDEO LESSON FOR THIS SONG - https://www.youtube.com/watch?v=6pN3QqdQ9QU
-------------------------------------------------------------------------

            
            
Suggest correction
Creating personal tab
Creating personal tab
You can edit any tab online and save it as your Personal.

You can edit, replace or remove any tab part or add personal notes – all changes will be seen only by you.

Personal tabs can be accessed anytime from any device, even offline.
Learn more »
comments
print report bad tab
guest
You may want to rate the tab now too:
select rating
Wanna post a correction for this tab? Suggest correction