Oops, an error
Loading. Please wait.

Theres Nothing Holdin Me Back Andrew Foy tab

5,446 views 264 this week
3 commentsread comments
1 2 3 4 5
x 14
add to favorites
×
Save as Personal and add changes to this tab that will be seen only by you. Learn more ›
×
You can save this tab as Personal to edit and correct it or add notes. All changes will be seen only by you. Learn more »
launch autoscroll
font size
0
reset
how to read this tab
guitar tuner
edit
Autoscroll
slow
fast
+/-
esc
set tempo
stop
There’s Nothing Holding Me Back by Shawn Mendes (Andrew Foy's arrangement)

Capo 2, Standard Tuning

[Intro]
e|-----------------------|-----------------------|--------------------|--------------------------|
B|-----------------------|-----------------------|--------------------|--------------------------|
G|-----------------------|-----------------------|--------------------|--------------------------|
D|-----------------------|-----------------------|--------------------|--------------------------|
A|-----5/7--5-----5/7--5-|----7/8--5-----7/8--5--|-----5/7--5-----5/7-|-5-----5/7--5-----5/7--5--|
E|--1----------1---------|-5-----------5---------|--3----------3------|----3----------3----------|

[Verse]
e|-----------------------|---------------------|----------------------------|
B|-----------------------|---------------------|----------------------------|
G|-----------------------|---------------------|----------------------------|
D|-----0h2p0--2--0-------|----0----------0h2p0-|-2--0-----------0-----------|
A|------------------3--0-|-3-------3-----------|-------3--0--3-----3--3-----|
E|--1--------------------|----3/5-----3--------|-------------------------1—-|


e|-----------------------|---------------------|----------------------|
B|-----------------------|---------------------|----------------------|
G|-----------------------|---------------------|----------------------|
D|--0h2p0--2--0----------|-0----------0h2p0--2-|-0-----------0--------|
A|---------------3--0--3-|------3--------------|----3--0--3-----3--3--|
E|-----------------------|-3/5-----3-----------|----------------------|

[Pre Chorus]
e|-----------------------|------------------------------------|
B|--0--------------------|------0--0-----0h1-----0------------|
G|-----2--2/4--2--2/4--2-|-2/4----------------------0h2p0-----|
D|-----------------------|---------------------------------0--|
A|----------------0----0-|------------------------------------|
E|--1--1-----------------|------------3-------3---------------|


e|-----------------------|----------------------|------0--0h1p0-----------|
B|--0--------------------|------0--0-----0h1----|-3--------------3--1-----|
G|-----2--2/4--2--2/4--2-|-2/4------------------|----------------------0--|
D|-----------------------|----------------------|-------------------------|
A|----------------0----0-|----------------------|-------------------------|
E|--1--1-----------------|------------3-------3-|----3--------------------|

[Chorus]
e|---0-------------|---------------|------------------|-----------------|---------------0-0--|
B|------------1-1--|3/5-5-5--------|-1-1---3/5-5-5----|-----1-1---3/5-5-|-5---------1-3------|
G|----------2------|-------------2-|------------------|---2-------------|---------2----------|
D|-----------------|---------------|------------------|-----------------|--------------------|
A|-----------------|----0----0---0-|------------------|-----------------|--------------------|
E|-1----1-x-1-----x|-----------x---|------x----3----3-|-x-3------x----3-|-----3-x-3----------|


e|---0------------|---------------|------------------|-----------------|---------------0-0--|
B|------------1-1-|3/5-5-5--------|-1-1---3/5-5-5----|-----1-1---3/5-5-|-5---------1-3------|
G|----------2-----|-------------2-|------------------|---2-------------|---------2----------|
D|----------------|---------------|------------------|-----------------|--------------------|
A|----------------|-----0---0---0-|------------------|-----------------|--------------------|
E|-1----1-x-1----x|-----------x---|------x----3----3-|-x-3------x----3-|-----3-x-3----------|


e|-----------------------|-------------------|-------------------|----0-----------------0--0--|
B|-----3/5--3-----3/5--3-|----5h6--5--5h6--5-|----3/5--3--3/5--3-|----------------1--3--------|
G|-----2/4--2-----2/4--2-|----5----5--5----5-|----0----0--0----0-|----------2--2--------------|
D|-----3/5--3-----3/5--3-|----7----7--7----7-|----0----0--0----0-|----------------------------|
A|-----------------------|-0-------0--0----0-|-------------------|----------------------------|
E|--1----------1---------|-------------------|-3--3----3--3----3-|-3-----3-----3--------------|

      Cmaj7/G               Em7

[Verse]
e|-----------------------|---------------------|----------------------------|
B|-----------------------|---------------------|----------------------------|
G|-----------------------|---------------------|----------------------------|
D|-----0h2p0--2--0-------|----0----------0h2p0-|-2--0-----------0-----------|
A|------------------3--0-|-3-------3-----------|-------3--0--3-----3--3-----|
E|--1--------------------|----3/5-----3--------|-------------------------1—-|


e|-----------------------|---------------------|----------------------|
B|-----------------------|---------------------|----------------------|
G|-----------------------|---------------------|----------------------|
D|--0h2p0--2--0----------|-0----------0h2p0--2-|-0-----------0--------|
A|---------------3--0--3-|------3--------------|----3--0--3-----3--3--|
E|-----------------------|-3/5-----3-----------|----------------------|

[Pre Chorus]
e|-----------------------|------------------------------------|
B|--0--------------------|------0--0-----0h1-----0------------|
G|-----2--2/4--2--2/4--2-|-2/4----------------------0h2p0-----|
D|-----------------------|---------------------------------0--|
A|----------------0----0-|------------------------------------|
E|--1--1-----------------|------------3-------3---------------|


e|-----------------------|----------------------|------0--0h1p0-----------|
B|--0--------------------|------0--0-----0h1----|-3--------------3--1-----|
G|-----2--2/4--2--2/4--2-|-2/4------------------|----------------------0--|
D|-----------------------|----------------------|-------------------------|
A|----------------0----0-|----------------------|-------------------------|
E|--1--1-----------------|------------3-------3-|----3--------------------|

[Chorus]
e|---0-------------|---------------|------------------|-----------------|---------------0-0--|
B|------------1-1--|3/5-5-5--------|-1-1---3/5-5-5----|-----1-1---3/5-5-|-5---------1-3------|
G|----------2------|-------------2-|------------------|---2-------------|---------2----------|
D|-----------------|---------------|------------------|-----------------|--------------------|
A|-----------------|----0----0---0-|------------------|-----------------|--------------------|
E|-1----1-x-1-----x|-----------x---|------x----3----3-|-x-3------x----3-|-----3-x-3----------|


e|---0------------|---------------|------------------|-----------------|---------------0-0--|
B|------------1-1-|3/5-5-5--------|-1-1---3/5-5-5----|-----1-1---3/5-5-|-5---------1-3------|
G|----------2-----|-------------2-|------------------|---2-------------|---------2----------|
D|----------------|---------------|------------------|-----------------|--------------------|
A|----------------|-----0---0---0-|------------------|-----------------|--------------------|
E|-1----1-x-1----x|-----------x---|------x----3----3-|-x-3------x----3-|-----3-x-3----------|


e|-----------------------|-------------------|-------------------|----0-----------------0--0--|
B|-----3/5--3-----3/5--3-|----5h6--5--5h6--5-|----3/5--3--3/5--3-|----------------1--3--------|
G|-----2/4--2-----2/4--2-|----5----5--5----5-|----0----0--0----0-|----------2--2--------------|
D|-----3/5--3-----3/5--3-|----7----7--7----7-|----0----0--0----0-|----------------------------|
A|-----------------------|-0-------0--0----0-|-------------------|----------------------------|
E|--1----------1---------|-------------------|-3--3----3--3----3-|-3-----3-----3--------------|

      Cmaj7/G               Em7

e|-----------------------|-------------------|-------------------|----0-----------------0--0--|
B|-----3/5--3-----3/5--3-|----5h6--5--5h6--5-|----3/5--3--3/5--3-|----------------1--3--------|
G|-----2/4--2-----2/4--2-|----5----5--5----5-|----0----0--0----0-|----------2--2--------------|
D|-----3/5--3-----3/5--3-|----7----7--7----7-|----0----0--0----0-|----------------------------|
A|-----------------------|-0-------0--0----0-|-------------------|----------------------------|
E|--1----------1---------|-------------------|-3--3----3--3----3-|-3-----3-----3--------------|
      Cmaj7/G               Em7

[Bridge]
e|-------------------------------|----------------------|------------------------|---------------------|
B|-------------------------------|----------------------|------------------------|---------------------|
G|--0--0--0----------------------|----------------------|------------------------|---------0-----------|
D|-----------0--0-----0-----0----|----0--0h2p0----------|-0--0-----0-----0-------|-0--0h2-----2--0-----|
A|-----------------------3-------|-3------------3--0----|-------------3--------3-|------------------3--|
E|-----------1-----1-----------5-|--------------------3-|-3-----3-----------3----|---------------------|


e|----------------------|----------------------|------------------------|---------------------|
B|----------------------|----------------------|------------------------|---------------------|
G|----------------------|----------------------|------------------------|---------0-----0--0--|
D|--0--0-----0-----0----|----0--0h2p0----------|-0--0-----0-----0-------|-0--0h2-----2--------|
A|--------------3-------|-3------------3--0----|-------------3--------3-|---------------------|
E|--1-----1-----------5-|--------------------3-|-3-----3-----------3----|---------------------|


e|-----------------------|---------------------|------------------------|--------------|
B|--1h3--3---------------|-------------------3-|-3-----3-----3-----1--3-|-3h5h8p5p3\1--|
G|--2-------2--5-7-----5-|-7--7/9\7p5-----5--0-|----------0-------------|--------------|
D|--3----------5-7-------|-------------7-----0-|----0-------------------|--------------|
A|------------------0----|---------------------|------------------------|--------------|
e|--1--------------------|-------------------3-|----------------3-------|--------------|


e|-----------------------|---------------------|--------------------------|--------------0--3--0------|
B|--1h3--3-----3-----3---|-1--3--3/5\3p1-----1-|-1h3--3--------3-----3----|---1--3--1--3-----------3--|
G|--2-------------0--0---|----------------2----|-0------------------------|---------------------------|
D|--3-------3--------0h2-|---------------------|-0----------------0-------|---------------------------|
A|-------------------0---|---------------------|--------------------------|---------------------------|
E|-----------------------|---------------------|-3-------3--------------3-|---------------------------|

[Chorus]
e|---0-------------|---------------|------------------|-----------------|---------------0-0--|
B|------------1-1--|3/5-5-5--------|-1-1---3/5-5-5----|-----1-1---3/5-5-|-5---------1-3------|
G|----------2------|-------------2-|------------------|---2-------------|---------2----------|
D|-----------------|---------------|------------------|-----------------|--------------------|
A|-----------------|----0----0---0-|------------------|-----------------|--------------------|
E|-1----1-x-1-----x|-----------x---|------x----3----3-|-x-3------x----3-|-----3-x-3----------|


e|---0------------|---------------|------------------|-----------------|---------------0-0--|
B|------------1-1-|3/5-5-5--------|-1-1---3/5-5-5----|-----1-1---3/5-5-|-5---------1-3------|
G|----------2-----|-------------2-|------------------|---2-------------|---------2----------|
D|----------------|---------------|------------------|-----------------|--------------------|
A|----------------|-----0---0---0-|------------------|-----------------|--------------------|
E|-1----1-x-1----x|-----------x---|------x----3----3-|-x-3------x----3-|-----3-x-3----------|

G D Bm D A D A D 

G D Bm D A D A D G 

DUDUDUDU DDU

| /   Slide up
| \   Slide down
| h   Hammer-on
| p   Pull-off
| x   Slap string/ Dead note

            
            
Suggest correction
Creating personal tab
Creating personal tab
You can edit any tab online and save it as your Personal.

You can edit, replace or remove any tab part or add personal notes – all changes will be seen only by you.

Personal tabs can be accessed anytime from any device, even offline.
Learn more »
comments
print report bad tab
3 comments total.
+2 reply
UnreliableUke 10 May 20, 2017 11:10 PM

yesss is love andrew foy

+3 reply
domalaonjelyn 10 May 31, 2017 05:27 AM

Thank you for this arrangement it really helped me to beat some of my friends and show them how awesome iam thank you again and i appreciate this

guest
You may want to rate the tab now too:
select rating
Wanna post a correction for this tab? Suggest correction