Oops, an error
Loading. Please wait.

Theres Nothing Holdin Me Back tab

version 1
version 1

Whole song

  • Fingerstyle arrangement by Andrew Foy.

Interactive

Video

7,462 views 762 this week
5 commentsread comments
1 2 3 4 5
x 11
add to favorites
×
Save as Personal and add changes to this tab that will be seen only by you. Learn more ›
×
You can save this tab as Personal to edit and correct it or add notes. All changes will be seen only by you. Learn more »
launch autoscroll
font size
0
reset
how to read this tab
guitar tuner
edit
Autoscroll
slow
fast
+/-
esc
set tempo
stop
About this tab version
Fingerstyle arrangement by Andrew Foy. Was this info helpful? Yes No
https://www.youtube.com/watch?v=_LtarlcXS3E

[Intro]

   t  t    t  t t    t  t t     t  t t     t  t t    t  t t    t  t t    t  t t    t
e|-----------------------------------------------------------------------------------|
B|-----------------------------------------------------------------------------------|
G|----7/9--7----7/9--7----9/10--9----9/10--9----7/9--7----7/9--7----7/9--7----7/9--7-|
D|-----------------------------------------------------------------------------------|
A|----5/7--5----5/7--5----7/8---7----7/8---7----5/7--5----5/7--5----5/7--5----5/7--5-|
E|-1----------1---------5----------5----------3---------3---------3---------3--------|

[Verse]
 
               o           o o o o  t     t  o            o              o  t    t  o
e|-----------------------------------------------------------------------------------|
B|-----------------------------------------------------------------------------------|
G|-----------------------------------------------------------------------------------|
D|---0h2---0-2-0---0----0-------------------------0h2-0-2-0---0---0------------------|
A|---------x-----3-x-3--------------3--x--------------x-----3-x-3---3--x---3--x------|
E|-1-----1-x-------x----5--------------x--3-----------x-------x---3----x------x--1---|

                                                                       o
            o           o o o o  t     t  o          o       o       o t o o
e|-----------------------------------------------------------------------------------|
B|-----------------------------------------------------------------------------------|
G|-----------------------------------------------------------------------------------|
D|--0h2-0-2-0--------0-----------------------0h2-0-2-0-------0-----------------------|
A|------x-----3-0-3--------------3--x------------x-----3-0-3---3--x----3-------------|
E|------x-------x----5--------------x--3---------x-------x---3----x------------------|

[Prechorus]

   o      o          o          o            o          o             o            o
e|-----------------------------------------------------------------------------------|
B|-0---------------------------------0---0------0h1----------------0-----------------|
G|-----2--2/4-----2--2/4-----2--2/4------------------------(0)-----------0h2-0-------|
D|---------------------------------------------------------(0)------------------0----|
A|---x---------x-----0----x--0---------x-------------x----------x------------x-------|
E|-1-x-1-------x----------x------------x-----3-------x----------x-----3------x-------|

             o            o              o               o               
e|-----------------------------------------------------------------------------------|
B|-----------0--(0)---------------------------------------------------0--------------|
G|-(0)----------(0)----2--2/4--(4)----2--2/4--(4)-----2--2/4--(4)--------------------|
D|-(0)----0-----(0)------------(0)------------(0)-------------(0)--------------------|
A|------x-----------x---------------x----0---------x-----0---------x-----------------|
E|------x----1------x--1------------x--------------x---------------x-----------------|

    o         o            o
e|-----------------------------0-----0h1p0-------------------------------------------|
B|-----0h1--------------3------------------3p1---------------------------------------|
G|---------------(0)---------------------------0-------------------------------------|
D|---------------(0)-----------------------------------------------------------------|
A|---------x---------x------------x--------------------------------------------------|
E|--3------x---------x-----3------x--3-----------------------------------------------|

[Chorus]

   o                         o                       o                       o
e|----0------------------------------------------------------------------------------|
B|----------------1-1----1/5-5-5----------1-1----3/5-5-5----------1-1----3/5-5-5-----|
G|-------------2------------------------2-----------------------2--------------------|
D|-------------3---------------------------------------------------------------------|
A|----------x----------x-----0----0--x--0------x-------------x---------x-------------|
E|-1-----1--x--1-------x-------------x---------x-----3----3--x--3------x-----3----3--|

                     o                         o                       o
e|------------0--0------0------------------------------------------------------------|
B|-------1-3-(3)--------------------1-1----1/5-5-5----------1-1----3/5-5-5---------1-|
G|----2--------------------------2------------------------2----------------------2---|
D|----0--------------------------3---------------------------------------------------|
A|-x-------------x------------x----------x-----0----0--x--0------x------------x------|
E|-x--3----------x---1-----1--x--1-------x-------------x---------x-----3----3-x--3---|
 
           o                        o             o             o             o
e|---------------------------0--0----------------------------------------------------|
B|-1---3/5-5-5----------1-3-(3)--------3/5-----3-----3/5-----3-----5h6-----5-----5h6-|
G|--------------------2----------------2/4-----2-----2/3-----2-----5-------5-----5---|
D|--------------------0----------------3/5-----3-----3/5-----3-----7-------------7---|
A|---x-------------x------------x-----------x-------------x-----0--0----x--0-----0---|
E|---x-----3----3--x--3---------x---1--1/3--x-----1--1/3--x-------------x------------|

         o             o             o                     o             o   
e|-------------------------------------0--------------0-0----------------------------|
B|----5-----3/5-----3-----3/5-----3--------------1-3----------3/5-----3-----3/5-----3|
G|----5-----0-------0-----0-------0------------2--------------2/4-----2-----2/4-----2|
D|----------0-------------0-----------------------------------3/5-----3-----3/5-----3|
A|-x--0----------x-------------x------------x---------x------------x-------------x---|
E|-x-----3--3/4--x--3--3--3/4--x--3--3---3--x--3------x----1--1/3--x-----1--1/3--x---|

   o             o            o             o             o
e|-----------------------------------------------------------0--------------0-0------|
B|----5h6-----5-----5h6----5-----3/5-----3-----3/5-----3----------------1-3----------|
G|----5-------5-----5------5-----0-------0-----0-------0--------------2--------------|
D|----7-------------7------------0-------------0-------------------------------------|
A|-0--0----x--0-----0---x--0----------x-------------x--------------x--------x--------|
E|---------x------------x-----3--3/4--x--3--3--3/4--x--3--3-----3--x--3-----x--------|


[Verse]
 
               o           o o o o  t     t  o            o              o  t    t  o
e|-----------------------------------------------------------------------------------|
B|-----------------------------------------------------------------------------------|
G|-----------------------------------------------------------------------------------|
D|---0h2---0-2-0--------0-------------------------0h2-0-2-0-------0------------------|
A|---------x-----3-0-3--------------3--x--------------x-----3-0-3---3--x---3--x------|
E|-1-----1-x-------x----5--------------x--3-----------x-------x---3----x------x--1---|

                                                                       o
            o           o o o o  t     t  o          o       o       o t o o
e|-----------------------------------------------------------------------------------|
B|-----------------------------------------------------------------------------------|
G|-----------------------------------------------------------------------------------|
D|--0h2-0-2-0--------0-----------------------0h2-0-2-0-------0-----------------------|
A|------x-----3-0-3--------------3--x------------x-----3-0-3---3--x----3-------------|
E|------x-------x----5--------------x--3---------x-------x---3----x------------------|

[Prechorus]

   o      o          o          o            o          o             o            o
e|-----------------------------------------------------------------------------------|
B|-0---------------------------------0---0------0h1----------------0-----------------|
G|-----2--2/4-----2--2/4-----2--2/4------------------------(0)-----------0h2-0---0---|
D|---------------------------------------------------------(0)-----------------2-----|
A|---x---------x-----0----x--0---------x-------------x----------x------------x-------|
E|-1-x-1-------x----------x------------x-----3-------x----------x-----3------x-------|

             o            o              o               o               
e|-----------------------------------------------------------------------------------|
B|-----------0--(0)---------------------------------------------------0--------------|
G|--------------(0)----2--2/4--(4)----2--2/4--(4)-----2--2/4--(4)--------------------|
D|--------------(0)------------(0)------------(0)-------------(0)--------------------|
A|---x--x-----------x---------------x----0---------x-----0---------x-----------------|
E|---x--x----1------x--1------------x--------------x---------------x-----------------|

    o         o            o
e|-----------------------------0-----0h1p0-------------------------------------------|
B|-----0h1--------------3------------------3p1---------------------------------------|
G|---------------(0)---------------------------0-------------------------------------|
D|---------------(0)-----------------------------------------------------------------|
A|---------x---------x------------x--------------------------------------------------|
E|--3------x---------x-----3------x--3-----------------------------------------------|

[Chorus]

   o                         o                       o                       o
e|----0------------------------------------------------------------------------------|
B|----------------1-1----1/5-5-5----------1-1----3/5-5-5----------1-1----3/5-5-5-----|
G|-------------2------------------------2-----------------------2--------------------|
D|-------------3---------------------------------------------------------------------|
A|----------x----------x-----0----0--x--0------x-------------x---------x-------------|
E|-1-----1--x--1-------x-------------x---------x-----3----3--x--3------x-----3----3--|

                     o                         o                       o
e|------------0--0------0------------------------------------------------------------|
B|-------1-3-(3)--------------------1-1----1/5-5-5----------1-1----3/5-5-5---------1-|
G|----2--------------------------2------------------------2----------------------2---|
D|----0--------------------------3---------------------------------------------------|
A|-x-------------x------------x----------x-----0----0--x--0------x------------x------|
E|-x--3----------x---1-----1--x--1-------x-------------x---------x-----3----3-x--3---|
 
           o                        o             o             o             o
e|---------------------------0--0----------------------------------------------------|
B|-1---3/5-5-5----------1-3-(3)--------3/5-----3-----3/5-----3-----5h6-----5-----5h6-|
G|--------------------2----------------2/4-----2-----2/3-----2-----5-------5-----5---|
D|--------------------0----------------3/5-----3-----3/5-----3-----7-------------7---|
A|---x-------------x------------x-----------x-------------x-----0--0----x--0-----0---|
E|---x-----3----3--x--3---------x---1--1/3--x-----1--1/3--x-------------x------------|

         o             o             o                     o             o   
e|-------------------------------------0--------------0-0----------------------------|
B|----5-----3/5-----3-----3/5-----3--------------1-3----------3/5-----3-----3/5-----3|
G|----5-----0-------0-----0-------0------------2--------------2/4-----2-----2/4-----2|
D|----------0-------------0-----------------------------------3/5-----3-----3/5-----3|
A|-x--0----------x-------------x------------x---------x------------x-------------x---|
E|-x-----3--3/4--x--3--3--3/4--x--3--3---3--x--3------x----1--1/3--x-----1--1/3--x---|

   o             o            o             o             o
e|-----------------------------------------------------------------------------------|
B|----5h6-----5-----5h6----5-----3/5-----3-----3/5-----3-----3/5---------------------|
G|----5-------5-----5------5-----0-------0-----0-------0-----0-----------------------|
D|----7-------------7------------0-------------0-------------0-----------------------|
A|-0--0----x--0-----0---x--0----------x-------------x--------------------------------|
E|---------x------------x-----3--3/4--x--3--3--3/4--x--3--3--3/4---3-----------------|

[Bridge]

e|-----------------------------------------------------------------------------------|
B|-----------------------------------------------------------------------------------|
G|-0-0-0----------------------------------------------------------------0------------|
D|--------0-0---0-----0------0--0h2p0-----------0--0---0---0-----0--0h2---2-0--------|
A|----------------3-x------3----------3---0--------------3-----3--------------3------|
E|--------1---1-----x----5-------------------3--3----3-------3-----------------------|

e|-----------------------------------------------------------------------------------|
B|-----------------------------------------------------------------------------------|
G|-----------------------------------------------------------------0---0-0-----------|
D|-----0-0---0---0------0--0h2p0-----------0--0---0---0-----0--0h2---2---------------|
A|-------------3------3----------3---0--------------3-----3--------------------------|
E|-----1---1--------5-------------------3--3----3-------3----------------------------|

   o    o    o  o      o     o      o   o    o  o   o o    o             t
e|-----------------------------------------------------------------------------------|
B|-1h3--3----3-------------------------------3--3---3---3-----1--3--3h5--8p5p3\1-----|
G|-2----2----2--2-/7------5--7--7/9\7p5---5--0--0---0-0------------------------------|
D|-3----3-3--3--------------------------7----0----0----------------------------------|
A|---------------------0-----------------------------------------x-------------------|
E|-1-----------------------------------------3-------------3-----x-------------------|

   o   o     o o    o     o      o   o    o   o   o o   o   o
e|-------------------------------------------------------------0-3-0--0--------------|
B|-1h3-3-----3---3-----1--3--3/5\3-1---1--1h3-3---3---3---1-3---------3--------------|
G|-------------0---------------------2--------------0-----------------0--------------|
D|-3------3--------------------------------------------------------------------------|
A|------------------0--------------------------------------------x----x--x-----------|
E|----------------------------------------3-------------3--------x----x--x-----------|

[Chorus]
   o                         o                       o                       o
e|----0------------------------------------------------------------------------------|
B|----------------1-1----1/5-5-5----------1-1----3/5-5-5----------1-1----3/5-5-5-----|
G|-------------2------------------------2-----------------------2--------------------|
D|-------------3---------------------------------------------------------------------|
A|----------x----------x-----0----0--x--0------x-------------x---------x-------------|
E|-1-----1--x--1-------x-------------x---------x-----3----3--x--3------x-----3----3--|

                     o                         o                       o
e|------------0--0------0------------------------------------------------------------|
B|-------1-3-(3)--------------------1-1----1/5-5-5----------1-1----3/5-5-5---------1-|
G|----2--------------------------2------------------------2----------------------2---|
D|----0--------------------------3---------------------------------------------------|
A|-x-------------x------------x----------x-----0----0--x--0------x------------x------|
E|-x--3----------x---1-----1--x--1-------x-------------x---------x-----3----3-x--3---|
 
           o                                                      
e|---------------------------0--0----------------------------------------------------|
B|-1---3/5-5-5----------1-3-(3)------------------------------------------------------|
G|--------------------2--------------------------------------------------------------|
D|--------------------0--------------------------------------------------------------|
A|---x-------------x------------x----------------------------------------------------|
E|---x-----3----3--x--3---------x----------------------------------------------------|

[Outro]

e|-1-1---1-1-1----------5-5---5-5-5----------3-3---3-3-3----------3-3---3-3-3--------|
B|-1-1---1-1-1----------5-5---5-5-5----------3-3---3-3-3----------3-3---3-3-3--------|
G|-2-2---2-2-2----5-----5-5---5-5-5----5-----4-4---4-4-4----5-----4-4---4-4-4----5---|
D|-3-3---3-3-3----5-----7-7---7-7-7----5-----5-5---5-5-5----5-----5-5---5-5-5----5---|
A|-3---x-3-3---x--3--x--7---x-7-7---x--3--x--5---x-5-5---x--3--x--5---x-5-5---x--3--x|
E|-1---x-1-1---x-----x--5---x-5-5---x-----x--3---x-3-3---x-----x--3---x-3-3---x-----x|

e|-1-1---1-1-1----------5-5---5-5-5----------3-3---3-3-3----------3-3---3-3-3--------|
B|-1-1---1-1-1----------5-5---5-5-5----------3-3---3-3-3----------3-3---3-3-3--------|
G|-2-2---2-2-2----5-----5-5---5-5-5----5-----4-4---4-4-4----5-----4-4---4-4-4----5---|
D|-3-3---3-3-3----5-----7-7---7-7-7----5-----5-5---5-5-5----5-----5-5---5-5-5----5---|
A|-3---x-3-3---x--3--x--7---x-7-7---x--3--x--5---x-5-5---x--3--x--5---x-5-5---x--3--x|
E|-1---x-1-1---x-----x--5---x-5-5---x-----x--3---x-3-3---x-----x--3---x-3-3---x-----x|

e|-1---------------------------------------------------------------------------------|
B|-1---------------------------------------------------------------------------------|
G|-2---------------------------------------------------------------------------------|
D|-3---------------------------------------------------------------------------------|
A|-3---------------------------------------------------------------------------------|
E|-1--------------------------------------------------------------------------------|

************************************

| x   Dead note
|(n)  Ghost note
| h   Hammer-on
| p   Pull-off
| t   Tapping
| /   Slide up
| \   Slide down
| o   Wrist thump

************************************
Suggest correction
Creating personal tab
Creating personal tab
You can edit any tab online and save it as your Personal.

You can edit, replace or remove any tab part or add personal notes – all changes will be seen only by you.

Personal tabs can be accessed anytime from any device, even offline.
Learn more »
comments
print report bad tab
5 comments total. Showing first comments.
+1 reply
taekwondo919 10 Jun 18, 2017 07:21 PM

😮

0 reply
samuel.kehoe 10 Jul 21, 2017 10:29 PM

Hitting the first low E's in the intro is so hard

guest
You may want to rate the tab now too:
select rating
Wanna post a correction for this tab? Suggest correction