Oops, an error
Loading. Please wait.

This Is What It Takes chords

version 2
version 2

Whole song

  • This version is more accurate and has the right ly... Show more
5,323 views 471 this week
2 commentsread comments
1 2 3 4 5
x 10
add to favorites
×
Save as Personal and add changes to this tab that will be seen only by you. Learn more ›
×
You can save this tab as Personal to edit and correct it or add notes. All changes will be seen only by you. Learn more »
launch autoscroll
font size
0
reset
transpose
0
reset
display chords
guitar tuner
edit
Autoscroll
slow
fast
+/-
esc
set tempo
stop
About this tab version
This version is more accurate and has the right lyrics along with the picking pattern for the intro. Was this info helpful? Yes No
Strumming
There is no strumming pattern for this song yet. and get +5 IQ
[Intro]
    C                  G               Am
e|-----------------|-----------------|--------------------0-------|
B|-----------1--3--|-----------1--3--|-----------1--3--------1h3--|
G|--------0--------|--------0--------|--------0--------0----------|
D|-----2-----------|-----0-----------|-----2----------------------|
A|--3--------------|--2--------------|--0-------------------------|
E|-----------------|-----------------|----------------------------|

    C                  G               Am
e|-----------------|-----------------|-----------------0-----|
B|-----------1--3--|-----------1--3--|-----------1--3-----3--|
G|--------0--------|--------0--------|--------0--------------|
D|-----2-----------|-----0-----------|-----2-----------------|
A|--3--------------|--2--------------|--0--------------------|
E|-----------------|-----------------|-----------------------|

[Verse 1]
     C                  G             Am
I watch your troubled eyes as you rest
        F                  G    C
And I fall in love with every breath
     C                  G        Am
Wonder if those eyes are really shut
        F                  G      C
And 'am I the one you're dreaming of?'

[Pre-Chorus]
       F                  G
Cause underneath the darkness
             C              G                 Am
There's a light that's trying so hard to be seen
       F                   G
And I know this cause I notice
             C              G       Am
A little bit shining through the seams

[Chorus]
        C       Dm       Am
And if this is what it takes
G                   C      Dm       Am   G
then let me be the one to bear the pain
    C       Dm       Am
If this is what it takes
G      Dm                             C         F
I'll break down these walls that are in our way
G
If this is what it takes

[Verse 2]
     C                  G             Am
You keep on telling me I'm wasting time
        F                  G    C
But to call it wasting time, oh that's a crime
     C                  G             Am
And you think it's crazy what I'm tryna do
        F         G         C
Well baby, I'm a fool for you

[Pre-Chorus]
       F                    G
Cause underneath the darkness
             C              G                 Am
There's a light that's trying so hard to be seen
       F                     G
And I know this cause I notice
             C              G       Am
A little bit shining through the seams

[Chorus]
        C       Dm       Am
And if this is what it takes
G                   C      Dm       Am   G
then let me be the one to bear the pain
    C       Dm       Am
If this is what it takes
G                      Dm         C         F
I'll break down these walls that are in our way
G                      C
If this is what it takes

[Bridge]
               F
Cause if you don't understand yet
            G
Then I'll never let you forget
      Am
That you don't have to do this on your own
              F
I'll be your shoulder to lean on
              G
I'll be your right when you feel wrong
     Am                              C
So c'mon take my hand, we're moving on

[Chorus]
        C       Dm       Am
And if this is what it takes
G                   C      Dm       Am   G
then let me be the one to bear the pain
    C       Dm       Am
If this is what it takes
G                      Dm         C         F
I'll break down these walls that are in our way
G                       C
If this is what it takes


************************************

| h  Hammer-on

************************************
Suggest correction
Creating personal tab
Creating personal tab
You can edit any tab online and save it as your Personal.

You can edit, replace or remove any tab part or add personal notes – all changes will be seen only by you.

Personal tabs can be accessed anytime from any device, even offline.
Learn more »
comments
print report bad tab
2 comments total.
0 reply
blackshotgamer79 21 Jun 20, 2017 04:23 AM

on the intro, it should be like this.
[Intro]
C G Am
e|-----------------|-----------------|--------------------0*------|
B|-----------1--3--|-----------1--3--|-----------1--3--------1h3--|
G|--------0--------|--------0--------|--------0--------0*---------|
D|-----2-----------|-----0-----------|-----2----------------------|
A|--3--------------|--2--------------|--0-------------------------|
E|-----------------|-----------------|----------------------------|

*changes

guest
You may want to rate the tab now too:
select rating
Wanna post a correction for this tab? Suggest correction