Oops, an error
Loading. Please wait.

Three Empty Words tab

version 1
version 1

Whole song

Video

9,604 views 156 this week
no commentswrite comment
1 2 3 4 5
x 23
add to favorites
×
Save as Personal and add changes to this tab that will be seen only by you. Learn more ›
×
You can save this tab as Personal to edit and correct it or add notes. All changes will be seen only by you. Learn more »
launch autoscroll
font size
0
reset
how to read this tab
guitar tuner
edit
Autoscroll
slow
fast
+/-
esc
set tempo
stop

----------------------------------------------------------------
   VIDEO LESSON - https://www.youtube.com/watch?v=FfguAKwVgC8
----------------------------------------------------------------

------------------------------
       CAPO ON 7TH FRET
------------------------------


[Intro/Verse] x5

   C               G               Am              Em7
e|---x--------x--|---x--------x--|---x--------x--|---x--------x--|
B|-1-x------1-x--|-3-x------3-x--|-1-x------1-x--|-0-x------3-x--|
G|-0-x----0---x--|-0-x--------x--|-2-x----2---x--|-0-x--------x--|
D|---x--2-----x--|---x--0-----x--|---x--2-----x--|---x--0-----x--|
A|-3-x--------x--|---x--------x--|-0-x--------x--|---x--------x--|
E|---x--------x--|-3-x--------x--|---x--------x--|-0-x--------x--|

   F               F               F               F
e|---x--------x--|---x--------x--|---x--------x--|---x--------x--|
B|-1-x------1-x--|-1-x------1-x--|-1-x------1-x--|-1-x------1-x--|
G|-2-x----2---x--|-2-x--------x--|-2-x----2---x--|-2-x--------x--|
D|---x--3-----x--|---x--3-----x--|---x--3-----x--|---x--3-----x--|
A|---x--------x--|---x--------x--|---x--------x--|---x--------x--|
E|-1-x--------x--|-1-x--------x--|-1-x--------x--|-1-x--------x--|


[Chorus]

   Am              Em              F               C        G/B
e|---x--------x--|---x--------x--|---x--------x--|---x--------x--|
B|-1-x------1-x--|-0-x------0-x--|-1-x------1-x--|---x--------x--|
G|-2-x----2---x--|-0-x--------x--|-2-x----2---x--|---x--------x--|
D|---x--2-----x--|---x--2-----x--|---x--3-----x--|---x--------x--|
A|-0-x--------x--|---x--------x--|---x--------x--|-3-x------2-x--|
E|---x--------x--|-0-x--------x--|-1-x--------x--|---x--------x--|

   Am              Em              F               C        
e|---x--------x--|---x--------x--|---x--------x--|---x--------x--|
B|-1-x------1-x--|-0-x------0-x--|-1-x------1-x--|-1-x------1-x--|
G|-2-x----2---x--|-0-x--------x--|-2-x----2---x--|-0-x--------x--|
D|---x--2-----x--|---x--2-----x--|---x--3-----x--|---x--2-----x--|
A|-0-x--------x--|---x--------x--|---x--------x--|-3-x--------x--|
E|---x--------x--|-0-x--------x--|-1-x--------x--|---x--------x--|

   G               Am              F               C        
e|---x--------x--|---x--------x--|---x--------x--|---x--------x--|
B|-0-x------3-x--|-0-x------0-x--|-1-x------1-x--|-1-x------1-x--|
G|-0-x----0---x--|-0-x--------x--|-2-x----2---x--|-0-x--------x--|
D|---x--0-----x--|---x--2-----x--|---x--3-----x--|---x--2-----x--|
A|---x--------x--|---x--------x--|---x--------x--|-3-x--------x--|
E|-3-x--------x--|-0-x--------x--|-1-x--------x--|---x--------x--|

   Am              E               F               C        
e|---x--------x--|---x--------x--|---x--------x--|---x--------x--|
B|-1-x------1-x--|-0-x------0-x--|-1-x------1-x--|-1-x------1-x--|
G|-2-x----2---x--|-1-x--------x--|-2-x----2---x--|-0-x--------x--|
D|---x--2-----x--|---x--2-----x--|---x--3-----x--|---x--2-----x--|   x2
A|-0-x--------x--|---x--------x--|---x--------x--|-3-x--------x--|
E|---x--------x--|-0-x--------x--|-1-x--------x--|---x--------x--|


[Intro/Verse] x5

   C               G               Am              Em7
e|---x--------x--|---x--------x--|---x--------x--|---x--------x--|
B|-1-x------1-x--|-3-x------3-x--|-1-x------1-x--|-0-x------3-x--|
G|-0-x----0---x--|-0-x--------x--|-2-x----2---x--|-0-x--------x--|
D|---x--2-----x--|---x--0-----x--|---x--2-----x--|---x--0-----x--|
A|-3-x--------x--|---x--------x--|-0-x--------x--|---x--------x--|
E|---x--------x--|-3-x--------x--|---x--------x--|-0-x--------x--|

   F               F               F               F
e|---x--------x--|---x--------x--|---x--------x--|---x--------x--|
B|-1-x------1-x--|-1-x------1-x--|-1-x------1-x--|-1-x------1-x--|
G|-2-x----2---x--|-2-x--------x--|-2-x----2---x--|-2-x--------x--|
D|---x--3-----x--|---x--3-----x--|---x--3-----x--|---x--3-----x--|
A|---x--------x--|---x--------x--|---x--------x--|---x--------x--|
E|-1-x--------x--|-1-x--------x--|-1-x--------x--|-1-x--------x--|


[Chorus]

   Am              Em              F               C        G/B
e|---x--------x--|---x--------x--|---x--------x--|---x--------x--|
B|-1-x------1-x--|-0-x------0-x--|-1-x------1-x--|---x--------x--|
G|-2-x----2---x--|-0-x--------x--|-2-x----2---x--|---x--------x--|
D|---x--2-----x--|---x--2-----x--|---x--3-----x--|---x--------x--|
A|-0-x--------x--|---x--------x--|---x--------x--|-3-x------2-x--|
E|---x--------x--|-0-x--------x--|-1-x--------x--|---x--------x--|

   Am              Em              F               C        
e|---x--------x--|---x--------x--|---x--------x--|---x--------x--|
B|-1-x------1-x--|-0-x------0-x--|-1-x------1-x--|-1-x------1-x--|
G|-2-x----2---x--|-0-x--------x--|-2-x----2---x--|-0-x--------x--|
D|---x--2-----x--|---x--2-----x--|---x--3-----x--|---x--2-----x--|
A|-0-x--------x--|---x--------x--|---x--------x--|-3-x--------x--|
E|---x--------x--|-0-x--------x--|-1-x--------x--|---x--------x--|

   G               Am              F               C        
e|---x--------x--|---x--------x--|---x--------x--|---x--------x--|
B|-0-x------3-x--|-0-x------0-x--|-1-x------1-x--|-1-x------1-x--|
G|-0-x----0---x--|-0-x--------x--|-2-x----2---x--|-0-x--------x--|
D|---x--0-----x--|---x--2-----x--|---x--3-----x--|---x--2-----x--|
A|---x--------x--|---x--------x--|---x--------x--|-3-x--------x--|
E|-3-x--------x--|-0-x--------x--|-1-x--------x--|---x--------x--|

   Am              E               F               C        
e|---x--------x--|---x--------x--|---x--------x--|---x--------x--|
B|-1-x------1-x--|-0-x------0-x--|-1-x------1-x--|-1-x------1-x--|
G|-2-x----2---x--|-1-x--------x--|-2-x----2---x--|-0-x--------x--|
D|---x--2-----x--|---x--2-----x--|---x--3-----x--|---x--2-----x--|
A|-0-x--------x--|---x--------x--|---x--------x--|-3-x--------x--|
E|---x--------x--|-0-x--------x--|-1-x--------x--|---x--------x--|


[Bridge] x2

   C               C+              C6              C7        
e|-0-x------0-x--|-0-x------0-x--|-0-x------0-x--|-0-x------0-x--|
B|-1-x----1---x--|-1-x----1---x--|-1-x----1---x--|-1-x----1---x--|
G|-0-x--0-----x--|-1-x--1-----x--|-2-x--2-----x--|-3-x--3-----x--|
D|---x--------x--|---x--------x--|---x--------x--|---x--------x--|
A|-3-x--------x--|-3-x--------x--|-3-x--------x--|-3-x--------x--|
E|---x--------x--|---x--------x--|---x--------x--|---x--------x--|

   F               C/E             G               G        
e|---x--------x--|---x--------x--|---x--------x--|---x--------x--|
B|-1-x------1-x--|-1-x------0-x--|-3-x------3-x--|-3-x------3-x--|
G|-2-x----2---x--|-0-x--------x--|-0-x----0---x--|-0-x--------x--|
D|---x--3-----x--|---x--2-----x--|---x--0-----x--|---x--0-----x--|
A|---x--------x--|---x--------x--|---x--------x--|---x--------x--|
E|-1-x--------x--|-0-x--------x--|-3-x--------x--|-3-x--------x--|


[Last Chorus]

   Am              Em              F               C      G/B
e|---------------|---------------|---------------|---------------|
B|-------1-------|-------0-------|-------1-------|---------------|
G|---------2-----|---------0-----|---------2-----|----0------0---|
D|-----2-----2---|-----2-----2---|-----3-----3---|---------------|
A|-0-------------|---------------|---------------|-3------2------|
E|---------------|-0-------------|-1-------------|---------------|

   Am              Em              F               C        
e|---------------|---------------|---------------|---------------|
B|-------1-------|-------0-------|-------1-------|-------1-------|
G|---------2-----|---------0-----|---------2-----|---------0-----|
D|-----2-----2---|-----2-----2---|-----3-----3---|-----2-----2---|
A|-0-------------|---------------|---------------|-3-------------|
E|---------------|-0-------------|-1-------------|---------------|

   G               Am              F               C        
e|---------------|---------------|---------------|---------------|
B|-------3-------|-------1-------|-------1-------|-------1-------|
G|---------0-----|---------2-----|---------2-----|---------0-----|
D|-----0-----0---|-----2-----2---|-----3-----3---|-----2-----2---|
A|---------------|-0-------------|---------------|-3-------------|
E|-3-------------|---------------|-1-------------|---------------|

   Am              E               F               C        
e|---------------|---------------|---------------|---------------|
B|-------1-------|-------0-------|-------1-------|-------1-------|
G|---------2-----|---------1-----|---------2-----|---------0-----|
D|-----2-----2---|-----2-----2---|-----3-----3---|-----2-----2---|   x2
A|-0-------------|---------------|---------------|-3-------------|  
E|---------------|-0-------------|-1-------------|---------------|

   Am              E               F               C        
e|---------------|-0-------------|-1-------------|-0-------------|
B|-1-------------|-0-------------|-1-------------|-1-------------|
G|-2-------------|-1-------------|-2-------------|-0-------------|
D|-2---------2---|-2-------------|-3-------------|-2-------------| 
A|-0-------------|-2-------------|-3-------------|-3-------------|  
E|---------------|-0-------------|-1-------------|---------------|
Suggest correction
Creating personal tab
Creating personal tab
You can edit any tab online and save it as your Personal.

You can edit, replace or remove any tab part or add personal notes – all changes will be seen only by you.

Personal tabs can be accessed anytime from any device, even offline.
Learn more »
comments
print report bad tab
guest
You may want to rate the tab now too:
select rating
Wanna post a correction for this tab? Suggest correction