Oops, an error
Loading. Please wait.

Treat You Better Bass Tab

version 1
version 1

Whole song

Interactive

478 views 96 this week
no commentswrite comment
1 2 3 4 5
x 4
add to favorites
launch autoscroll
font size
0
reset
guitar tuner
Autoscroll
slow
fast
+/-
esc
set tempo
stop
Help us to improve Ultimate-Guitar.com Take our survey!
×
Author
Difficulty
novice
Shawn Mendes - Treat You Better

[Intro/Verse]

   Bbm          Ab           Gb             
G|------------|-------------|-------------|------------|
D|------------|-------------|-------------|------------|
A|-1---1------|-------------|-------------|------------|
E|------------|-4---4-------|-2---2-------|-2---2------|


[Chorus]

   Bbm          Ab           Gb             Db
G|------------|-------------|-------------|------------|
D|------------|-------------|-------------|------------|
A|-1---1------|-------------|-------------|-4---4------|
E|------------|-4---4-------|-2---2-------|------------|


The rhythm doesn't change for the whole song - just the extra note gets added in the chorus, and that's it!

Suggest correction
comments
print report bad tab
guest
You may want to rate the tab now too:
select rating
Wanna post a correction for this tab? Suggest correction