Oops, an error
Loading. Please wait.

Treat You Better Tab

version 1
version 1

Intro

Whole song

Interactive

703 views 24 this week
no commentswrite comment
1 2 3 4 5
3 more votes to show rating
add to favorites
launch autoscroll
font size
0
reset
how to read this tab
guitar tuner
Autoscroll
slow
fast
+/-
esc
set tempo
stop
Help us to improve Ultimate-Guitar.com Take our survey!
×
Author
No Capo


e|---------------------------------------------------------------------------|
B|---------------------------------------------------------------------------|
G|--6--6--6\5--5--5\3--3--3--3--3/5--6--6--6\5--5--5\3--3--3--3--3/5---------|
D|---------------------------------------------------------------------------|  
A|---------------------------------------------------------------------------|
E|--6--6--6\4--4--4\2--2--2--2--2/4--6--6--6\4--4--4\2--2--2--2--2/4---------|

or a slightly different version


e|-----------------------------------------------------------------------------------------------------|
B|-----------------------------------------------------------------------------------------------------|
G|----6---6---6---5---5---5---3---3---3---3---3---5---6---6---6---5---5---5---3---3---3---3---3---5----|
D|-----------------------------------------------------------------------------------------------------|  
A|-----------------------------------------------------------------------------------------------------|
E|--6---6---6---4---4---4---2---2---2---2---2---4---6---6---6---4---4---4---2---2---2---2---2---4------|



Tip: Sounds better with a palm mute
Suggest correction
Give kudos to tab author, rate the tab!
1 2 3 4 5
comments
print report bad tab
guest
You may want to rate the tab now too:
select rating
Wanna post a correction for this tab? Suggest correction