Oops, an error
Loading. Please wait.
We have Chord Pro version of Treat You Better.
It's the closest thing you can get to the original song and it has interactive parts. Check out the tab »
×

Treat You Better tab

version 1
version 1

Whole song

  • Includes correct intro and solo.
  • Fairly easy finger style arrangement for Treat You Better by Shawn Mendes.

Interactive

Video

  • Easy to follow video lesson. CAPO version.
  • It's the full Song Rhythm Guitar for an unplugged Session.
67,360 views 687 this week
6 commentsread comments
1 2 3 4 5
x 35
add to favorites
×
Save as Personal and add changes to this tab that will be seen only by you. Learn more ›
×
You can save this tab as Personal to edit and correct it or add notes. All changes will be seen only by you. Learn more »
launch autoscroll
font size
0
reset
how to read this tab
guitar tuner
edit
Autoscroll
slow
fast
+/-
esc
set tempo
stop
Author
Difficulty
Treat You Better - Shawn Mendes

This is a really awesome song so here's the tab. Its sounds better if you add a light palm mute in the intro
and verse :)

[Intro]

e|---------------------------------------------------------------------------|
B|---------------------------------------------------------------------------|
G|--5--5--5\4--4--4\2--2--2--2--2/4--5--5--5\4--4--4\2--2--2--2--2/4---------|
D|---------------------------------------------------------------------------|  
A|---------------------------------------------------------------------------|
E|--5--5--5\3--3--3\1--1--1--1--1/3--5--5--5\3--3--3\1--1--1--1--1/3---------|


[Verse]

e|---------------------------------------------------------------------------|
B|---------------------------------------------------------------------------|
G|--5--5--5\4--4--4\2--2--2--2--2/4--5--5--5\4--4--4\2--2--2--2--2/4---------|  x2
D|---------------------------------------------------------------------------|  
A|---------------------------------------------------------------------------|
E|--5--5--5\3--3--3\1--1--1--1--1/3--5--5--5\3--3--3\1--1--1--1--1/3---------|

I won't lie to you
I know he's just not right for you
And you can tell me if I'm off
But I see it on your face
When you say that he's the one that you want
And you're spending all your time
In this wrong situation
And anytime you want it to stop

[Chorus]
 
             Am         G
I know I can treat you better
F        C
Than he can
                  Am        G      F     C
And any girl like you deserves a gentleman
                    Am    
Tell me why are we wasting time
                G
On all on your wasted crime
                        F      G
When you should be with me instead
              Am        G      F
I know I can treat you better

Better than he can



[Verse]

e|---------------------------------------------------------------------------|
B|---------------------------------------------------------------------------|
G|--6--6--6\4--4--4\2--2--2--2--2/4--6--6--6\4--4--4\2--2--2--2--2/4---------|  x2
D|---------------------------------------------------------------------------|  
A|---------------------------------------------------------------------------|
E|--5--5--5\3--3--3\1--1--2--2--2/3--5--5--5\3--3--3\1--1--1--1--1/3---------|

I'll stop time for you
The second you say you'd like me too
I just wanna give you the loving that you're missing
Baby, just to wake up with you
Would be everything I need and this could be so different
Tell me what you want to do

[Chorus]
 
             Am         G 
I know I can treat you better
F         C
Than he can
                  Am        G      F      C
And any girl like you deserves a gentleman
                    Am    
Tell me why are we wasting time
                G
On all on your wasted crime
                        F      G
When you should be with me instead
              Am        G      F
I know I can treat you better
F                      G
Better than he can
F                      G
Better than he can
F                      G
Better than he can

[Bridge]
 Am       G
Give me a sign
C             F
Take my hand, we'll be fine
Am        G             F
Promise I won't let you down
     Am            G
Just know that you don't
C               F
Have to do this alone
Am           G             F
Promise I'll never let you down


[Chorus]
 
             Am         G 
I know I can treat you better
F         C
Than he can
                  Am        G      F      C
And any girl like you deserves a gentleman
                    Am    
Tell me why are we wasting time
                G
On all on your wasted crime
                        F      G
When you should be with me instead
              Am        G      F
I know I can treat you better
F                      G     F
Better than he can
F                      G     F
Better than he can
F                      G     F
Better than he can

F          G          F


************************************

| /  Slide up
| \  Slide down

************************************

            
            
Suggest correction
Creating personal tab
Creating personal tab
You can edit any tab online and save it as your Personal.

You can edit, replace or remove any tab part or add personal notes – all changes will be seen only by you.

Personal tabs can be accessed anytime from any device, even offline.
Learn more »
comments
print report bad tab
6 comments total. Showing first comments.
0 reply
pressie_brown 53 Jun 27, 2016 10:15 AM

the tab is awesome,but i think there is a tiny mistake,hope this is the correct way to play it,otherwise it sounds way too major
e|---------------------------------------------------------------------------|
B|---------------------------------------------------------------------------|
G|--5--5--5\4--4--4\2--2--2--2--2/4--5--5--5\4--4--4\2--2--2--2--2/4---------|
D|---------------------------------------------------------------------------|
A|---------------------------------------------------------------------------|
E|--5--5--5\3--3--3\1--1--2--2--2/3--5--5--5\3--3--3\1--1--1--1--1/3---------|

0 reply
Shadowshauntme 10 Jul 25, 2016 07:51 AM

This sounds great but for the chorus it sounds better if you use C shapes instead of bar chords. So it would be:
[Chorus]

Am G
I know I can treat you better
F G
Than he can
Am G F C
And any girl like you deserves a gentleman
Am
Tell me why are we wasting time
G
On all on your wasted crime
F C
When you should be with me instead
Am G F
I know I can treat you better

Better than he can

Where the cords look like:
Am G F C
e--0--0--x--0--
B--1--1--1--1--
G--2--0--2--0--
D--2--0--3--2--
A--0--2--3--3--
E--0--3--x--0--

0 reply
watermeelon843 10 Aug 04, 2017 09:46 PM

It's wasted crying not crime just an FYI

guest
You may want to rate the tab now too:
select rating
Wanna post a correction for this tab? Suggest correction