Oops, an error
Loading. Please wait.
We have Chord Pro version of Treat You Better.
It's the closest thing you can get to the original song and it has interactive parts. Check out the tab »
×

Treat You Better tab

version 2
version 2

Whole song

  • Includes correct intro and solo.
  • Fairly easy finger style arrangement for Treat You Better by Shawn Mendes.

Interactive

Video

  • Easy to follow video lesson. CAPO version.
  • It's the full Song Rhythm Guitar for an unplugged Session.
8,881 views 87 this week
no commentswrite comment
1 2 3 4 5
x 13
add to favorites
×
Save as Personal and add changes to this tab that will be seen only by you. Learn more ›
×
You can save this tab as Personal to edit and correct it or add notes. All changes will be seen only by you. Learn more »
launch autoscroll
font size
0
reset
how to read this tab
guitar tuner
edit
Autoscroll
slow
fast
+/-
esc
set tempo
stop
About this tab version
Includes correct intro and solo. Was this info helpful? Yes No
(The opening riff can be heard in all of the Choruses)


[Intro]

e|------------------------------------|
B|------------------------------------|
G|--5--5-5/4--4-4/2--2-2--2--2/4------|
D|------------------------------------|
A|------------------------------------|
E|--5--5-5/3--3-3/1--1-1--1--1/3------| X2


[Verse 1]

(Intro riff) X2


[Pre-Chorus 1]

 (Intro riff) X2


[Chorus 1]

 Am G F C X4


During verse 2 and Pre-Chorus 2 this can be heard:

e|------------------------------------------------------------------------|
B|------------------------------------------------------------------------|
G|---5-----5-----------4-----4-----------2-----2-----------2------2-------|
D|-----7-----7---7-------5-----5---5-------3-----3---3-------3------3---3-|
A|-------------7-----------------5-----------------3------------------3---|
E|-5-----5-----------3-----3-----------1-----1-----------1-----1----------|


[Verse 2]

(Intro Riff) X2


[Pre-Chorus 2] 

(Intro Riff) X2


[Chorus 2]] 

Am G F C X4


[Solo]

e|-------------------------------------------------|
B|-------------------------------------------------|
G|----9-9--7/5-----9-9--7/9\7/9\5---9-9--7-5-------|
D|--7----------7------------------------------5----|
A|-------------------------------------------------|
E|-------------------------------------------------| X2


[Bridge] 

Am G/B C F  Am G/B F X2


[Chorus 3] 

Am G F C X4

Solo: X2

(Chorus Chords during solo)



************************************

| /  Slide up
| \  Slide down

************************************

            
            
Suggest correction
Creating personal tab
Creating personal tab
You can edit any tab online and save it as your Personal.

You can edit, replace or remove any tab part or add personal notes – all changes will be seen only by you.

Personal tabs can be accessed anytime from any device, even offline.
Learn more »
comments
print report bad tab
guest
You may want to rate the tab now too:
select rating
Wanna post a correction for this tab? Suggest correction