Oops, an error
Loading. Please wait.

Black Hole Bass Tab

943 views 1 this week
no commentswrite comment
1 2 3 4 5
please rate
add to favorites
launch autoscroll
font size
0
reset
guitar tuner
Tab Pro tools
  • play this tab
  • loop segment
  • change instrument
  • show fretboard
  • metronome
×
Best way to learn
"Black Hole"
Autoscroll
slow
fast
+/-
esc
set tempo
stop
Contributor
+++++++++++++++++++++++++
| She & Him- Black Hole |
+++++++++++++++++++++++++


"Im alone on a bicycle for two..."

Tuning: Standard EADG


Bridge
1.
G|-------------------------------------------------------------------------------------|
D|-5~-------5~-------------------------------5~-------5~-------------------------------|
A|----5~--7----5~----5~--5-4~----2~--2-2~-------5~--7----5~--7-5~--5-4~----2~--2-2~----|
E|-------------------------------------------------------------------------------------|

2.
G|---------------------------------|
D|-5-5-5-5-5-5-5-5/8-8-8-8-8-8-8-8-|
A|---------------------------------|
E|---------------------------------|

Chorus
"Speak slowly I cant hear you..."
3.
G|--------------------------------------------------------------------------------------|
D|-------7~----------7~----------7~----------7~----5~--------5~-------------------------|
A|-5~--5----5--5~--5----5--5~--5----5--5~--5----5------5~--7----5~--7-0~--00~--0~--00~--|
E|--------------------------------------------------------------------------------------|

"And it just gets so foggy..."
4.
G|------------------------------------------------------------------------------------------|
D|----------7---------7----------7---------7-----5~--7h9~-7-5~--7h8~-7----------------------|
A|-5~--7h9~---5~--7h9---5~--7h9~---5~--7h9---9p7-----------------------5~----4~----2~--2-2~-|
E|------------------------------------------------------------------------------------------|

Outro
"Im alone on a bicycle for two..."
5.
G|-----------------------------------------|
D|-2~--------5~----8~----------------------|
A|-----------------------5~----------------|
E|-----------------------------------------|


Lyrics:

My eyes are so bleary 
I guess I'm young but I feel so weary 
I've tried to express it 
But I think its all a bore 
Its at the heart of me, 
A very part of me 

Speak slowly, I can't hear you 
My mind keeps spinning closer and closer to the rain on the roof, 
And the rain in my head, and the things that you said 
People take it further ahead 
And it just gets so foggy 
It's nowhere in here 
And its everywhere else that I don't wanna be, 
But I'm stuck here getting misty over you 
I'm alone on a bicycle for two. 



+++++++++++++++++++++++++++++++++
| RaiLeff                       |
| Underground__Dora@Hotmail.Com |
+++++++++++++++++++++++++++++++++
comments
We did not receive enough feedback on this tab! Please rate:
print report bad tab
1 2 3 4 5
I want to post or [tab]
guest
You may want to rate the tab now too:
select rating
Please do not post tabs as comments. Select "correction" instead!