Oops, an error
Loading. Please wait.

Change Is Hard Tab

version 1
version 1

Whole song

11,565 views 1 this week
1 commentread comment
1 2 3 4 5
worth learning
x 4
add to favorites
launch autoscroll
font size
0
reset
how to read this tab
guitar tuner
Tab Pro tools
  • play this tab
  • loop segment
  • change instrument
  • show fretboard
  • metronome
×
Best way to learn
"Change Is Hard"
Autoscroll
slow
fast
+/-
esc
set tempo
stop
Contributor
Artist: She & Him
Song: Change Is Hard
Album: Volume One
Composer: Zooey Deschanel
Tuning Standard

I'm still working on solo a when i'm done with it i'll post it

Verse - I'm all out of luck...
|-0-0-0-0-0-0-0-0-0-0-0-0-0-0-0-0-|
|-5-5-5-5-5-5-5-5-5-5-5-5-5-5-5-5-|
|-0-0-0-0-0-0-0-0-0-0-0-0-0-0-0-0-|
|-6-6-6-6-7-7-7-7-6-6-6-6-0-0-0-0-|
|-7-7-7-7-6-6-6-6-7-7-7-7-6-6-6-6-|
|-------------------------7-7-7-7-|

Chorus - I was never no, i was never...
|-0-0-0-0-0-0-0-0-0-0-0-0-6-6-6-6-|
|-5-5-5-5-5-5-5-5-5-5-5-5-0-0-0-0-|
|-0-0-0-0-0-0-0-0-0-0-0-0-0-0-0-0-|
|-6-6-6-6-7-7-7-7-6-6-6-6-0-0-0-0-|
|-7-7-7-7-6-6-6-6-7-7-7-7-5-5-5-5-|
|-------------------------6-6-6-6-|

Solo B (this is played with a slide, http://www.youtube.com/watch?v=BQiy0dAhcvs watch 
video and look at m. ward's middle finger if you don't know what i'm talking about)
|-----------------------------------------------------|
|-11/---5/-7/-4/-6/---3/-3~-----11/---5/-7/-5/-4/---8-|
|-----------------------------------------------------|
|-----------------------------------------------------|
|-----------------------------------------------------|
|-----------------------------------------------------|
comments
print report bad tab
1 comment total.
0 reply
imabookie3 wrote on February 19 2010, 04:19 pm, edited on August 10 2015, 10:14 pm

Thank you.

I want to post or [tab]
guest
You may want to rate the tab now too:
select rating
Please do not post tabs as comments. Select "correction" instead!