Oops, an error
Loading. Please wait.

Got Me Bass Tab

267 views 1 this week
no commentswrite comment
1 2 3 4 5
please rate
add to favorites
launch autoscroll
font size
0
reset
guitar tuner
Tab Pro tools
  • play this tab
  • loop segment
  • change instrument
  • show fretboard
  • metronome
×
Best way to learn
"Got Me"
Autoscroll
slow
fast
+/-
esc
set tempo
stop
Contributor
+++++++++++++++++++++
| She & Him- Got Me |
+++++++++++++++++++++


"I can feel your heartbeat where I lay my head..."


Tuning: Standard EADG


Verse
"Saw your face, my hand you took..."
1.
G|---------------------------------|
D|---------------------------------|
A|-3~------------------------------|
E|---------------------------------|

"You got me..."
2.
G|---------------------------------|
D|-3~------3~----------------------|
A|-----3~------3~--3~------3~------|
E|---------------------3~------3~--|

"I cant even argue..."
3.
G|--------------------------------------------------------------------|
D|-----------------------------0-2-3~-----3-3~-----3------------------|
A|-3~------3~------3~------3~----------3~-------3~---3~-------3~--3-4-|
E|-----3~------3~------3~--------------------------------3~-3---------|

Chorus
"Got me tucked up in your pocket..."
4.
G|------------------------------------------------------------------|
D|------------------------------------------------------------------|
A|-5~------5~-----5-5~------5~--5-5-----5~------5~------5-5-----0-2-|
E|-----5~------5~-------5~----------3~------3~------3~------3-3-----|

Verse
"I can feel your heartbeat..."
5.
G|---------------------------------------------------------------------|
D|-----------------------------0-2-3~-----3-3~-----3-------------------|
A|-3~------3~------3~------3~----------3~-------3~---3~-------3~-----3-|
E|-----3~------3~------3~--------------------------------3~-3-----3~---|

Bridge
6.
G|-----------------------------------------------------------------------|
D|--------------------------------0-2-3~-----3-3~-----3------------------|
A|-3~-----2-3~-----2-3~-----2-3~----------3~-------3~---3~-----3-3~--3-3-|
E|-----3~-------3~-------3~---------------------------------3~-----------|

Verse
"I can feel your heartbeat..."
7.
G|----------------------------------------------------------------------|
D|-----------------------------0-2-3~-----3-3~-----3--------------------|
A|-3~------3~------3~------3~----------3~-------3~---3~-----3-3~--3-5-6-|
E|-----3~------3~------3~--------------------------------3~-------------|

Chorus
"Got me tucked up in your pocket..."
8.
G|----------------------------------------------------------------------|
D|-2~-----2-2~-----2-2~-----2-2~--2-2-----------------------------------|
A|-----2~-------2~-------2~---------------7~------7~------7~------0-2-4-|
E|------------------------------------5~------5~------5~------5~--------|

Outro
"Oooh..."
9.
G|----------------------------------------------------------------------------------------|
D|--------------------------------0-2-4-5~-----5-5~--5-5-------------0-2-5~-----5-5~--5-5-|
A|-5~-----4-5~-----4-5~-----4-5~------------5~------5----5~------5~----------5~------5----|
E|-----5~-------5~-------5~----------------------------------5~---------------------------|

10.
G|--------------------------------------------------|
D|------------2--2~------5~-----5-------------------|
A|-5~--5~--0~---0----5~------5~---5~----------------|
E|--------------------------------------------------|


Please rate thanks!!


Lyrics:

Saw your face, 
My hand you took 
Just like in a story book, 
And you got me 
Yeah, you've got me 

I can't even argue 
Couldn't cause its true 
Now, you've got me 
Yeah, you've got me 

Got me tucked up in your pocket 
Don't know how you won my heart 
'Cause I locked it 
Yeah, I locked it 

I can feel your heartbeat, 
Where I lay my head 
'Cause you've got me 
Yeah you've got me 



+++++++++++++++++++++++++++++++++
| Raileff                       |
| Underground__Dora@Hotmail.Com |
+++++++++++++++++++++++++++++++++
comments
We did not receive enough feedback on this tab! Please rate:
print report bad tab
1 2 3 4 5
I want to post or [tab]
guest
You may want to rate the tab now too:
select rating
Please do not post tabs as comments. Select "correction" instead!